Sum 41 - Rhythms Chords & Tabs

 

Rhythms Chords & Tabs

Sum 41 Chords & Tabs

Version: 1 Type: Bass Tab 0 ratings
1 star 2 stars 3 stars 4 stars 5 stars
comments

Rhythms Bass Tab

rhythms by sum 41
album: all killer no filler
tabbed by: ally

intro
g:-------------------------------------------------------------------
d:---9-9---9-9-------------------------------------------------------
a:-7-----7-------11-11--11-11----9-9---9-9----------------------------
e:--------------9-----9-------7-----7-------5-------------------------

verse pt 1 x2
g:--------------------------------------------------------------------
d:----99-77-66--------------------------------------------------------
a:-77----------4444-66-77-000000000000-22-44--------------------------
e:--------------------------------------------------------------------
verse pt 2
g:--------------------------------------------------------------------
d:--------------------------------------------------------------------
a:-7-7-7-------------------7-7-7--------------------------------------
e:-------9-9-9-5-5-5-5-7-9-------9-9--5-----0--9--5--7-7-7-7-7-7-7-7-7
[ Tab from: http://www.guitartabs.cc/tabs/s/sum_41/rhythms_btab.html ]
pre chorus x2
g:--------------------------------------------------------------------
d:--------------------------------------------------------------------
a:-7x7x---------------------------------------------------------------
e:------9x9x-11-5x5x-7x777--------------------------------------------

chorus x2
g:--------------------------------------------------------------------
d:--------------------------------------------------------------------
a:-7-7-7-7-7-7-7-7----------------------------------------------------
e:-----------------7-7-7-7-7-7-7-7-7-9-9-9-9-9-9-9-9-9-5x5x-----------

intro
verse pt 1 x2
verse pt 2
rest 4 guitar part

then go x2

g:--------------------------------------------------------------------
d:--------------------------------------------------------------------
a:-7-7-7-7-7-7-7-7---------------------------------------------------
e:-------------------9-9-9-9-9-9-9-9-5-5-5-5-5-5-5-5-5-5-5-5-5-5-5-5-

pre chorus x2
chorus x2
intro

outro
g:--------------------------------------------------------------------
d:--------------------------------------------------------------------
a:-77--77--77--77--77--77---------------------------------------------
e:---0----0--00--0----0---00------------------------------------------

any probs email me at agilbert41@aol.com

Comments