Sum 41 - Reign In Pain Chords & Tabs

 

Reign In Pain Chords & Tabs

Sum 41 Chords & Tabs

Version: 1 Type: Tab 0 ratings
1 star 2 stars 3 stars 4 stars 5 stars
comments

Reign In Pain Tab

   
Band - Sum 41
Song - Reign In Pain

Intro (Guitar1):
eb||---------------||
Bb||---------------||
Gb||---------------||
Db||-9-------(9)\--||
Ab||-7-------(7)\--||
Eb||---------------||


Chorus:
   Guitar1
eb|-------------------|-----------------------|--------------------|--------------------------|
Bb|-------------------|-----------------------|--------------------|--------------------------|
Gb|-7-9-----7-9--12-9-|-7-9-----5-5-7-(7)-7-7-|-7-9-----7-9--12-9--|-7-9----------------------|
Db|-7-9-----7-9--12-9-|-7-9-----5-5-7-(7)-7-7-|-7-9-----7-9--12-9--|-7-9------9--9-5-(5)-5--7-|
Ab|-5-7-----5-7--10-7-|-5-7-----3-3-5-(5)-5-5-|-5-7-----5-7--10-7--|-5-7------9--9-5-(5)-5--7-|
Eb|-------------------|-----------------------|--------------------|----------7--7-3-(3)-3--5-|
  |
  |Guitar2
eb|-5-7-----5-7--10-7-|-5-7-----3-3-5-(5)-5-5-|-5-7-----5-7--10-7--|-5-7------7--7-3-(3)-3--5-|
Bb|-------------------|-----------------------|--------------------|--------------------------|
Gb|-------------------|-----------------------|--------------------|--------------------------|
Db|-------------------|-----------------------|--------------------|--------------------------|
Ab|-------------------|-----------------------|--------------------|--------------------------|
Eb|-------------------|-----------------------|--------------------|--------------------------|
  |
  | Guitar3
eb|-------------------|-----------------------|--------------------|--------------------------|
Bb|-7-8-----7-8--12-8-|-7-8-----5-5-7-(7)-7-7-|-7-8-----7-8--12-8--|-7-8-----12-12-8-(8)-8-10-|
Gb|-------------------|-----------------------|--------------------|--------------------------|
Db|-------------------|-----------------------|--------------------|--------------------------|
Ab|-------------------|-----------------------|--------------------|--------------------------|
Eb|-------------------|-----------------------|--------------------|--------------------------|

Verse:
    Guitar1
eb||--------------------------|-----------------------|
Bb||o-------------------------|-----------------------|
Gb||--9-----9-----9-----9-----|-9-----9-----7-x-7-x-7-|
Db||--9-9-9-9-9-9-9-9-9-9-9-9-|-9-9-9-9-9-9-7-x-7-x-7-|
Ab||o-7-7-7-7-7-7-7-7-7-7-7-7-|-7-7-7-7-7-7-5-x-5-x-5-|
Eb||--------------------------|-----------------------|


eb|-------------------------|------------------------------||
Bb|-------------------------|-----------------------------o||
Gb|-9-----9-----9-----9-----|-9-----9-----------5----------||
Db|-9-9-9-9-9-9-9-9-9-9-9-9-|-9-9-9-9-9-9---5-----5---5p0--||
Ab|-7-7-7-7-7-7-7-7-7-7-7-7-|-7-7-7-7-7-7-3---3-----3-----o||
Eb|-------------------------|------------------------------||

   (last ending)
eb|-------------------------|-----------------------||
Bb|-------------------------|-----------------------||
Gb|-9-----9-----9-----9-----|-9-----9-----7-x-7-x-7-||
Db|-9-9-9-9-9-9-9-9-9-9-9-9-|-9-9-9-9-9-9-7-x-7-x-7-||
Ab|-7-7-7-7-7-7-7-7-7-7-7-7-|-7-7-7-7-7-7-5-x-5-x-5-||
Eb|-------------------------|-----------------------||

Pre-Chorus:
   Guitar1
eb|--------------|--------|---------------------------------|---------------------------------|
Bb|--------------|--------|---------------------------------|---------------------------------|
Gb|-5-------5-4--|-2------|---------------------------------|---------------------------------|
Db|-5-------5-4--|-2----4-|-2-------2-------2-------2-------|-2-------2-------2-------2-------|
Ab|-3-------3-2--|-0----4-|-2---2-2-2---2-2-2---2-2-2---2-2-|-2---2-2-2---2-2-2---2-2-2---2-2-|
Eb|--------------|------2-|-0---0-0-0---0-0-0---0-0-0---0-0-|-0---0-0-0---0-0-0---0-0-0---0-0-|
  |
  |Guitar2
eb|-7-------7-5--|-3----2-|-7-5-3-5-7-5-3-5-7-5-3-5-7-5-3-5-|-7-5-3-5-7-5-3-5-7-5-3-5-7-5-3-5-|
Bb|--------------|--------|---------------------------------|---------------------------------|
Gb|--------------|--------|---------------------------------|---------------------------------|
Db|--------------|--------|---------------------------------|---------------------------------|
Ab|--------------|--------|---------------------------------|---------------------------------|
Eb|--------------|--------|---------------------------------|---------------------------------|
  |
  |Guitar3
eb|--------------|--------|-7-5-3-5-7-5-3-5-7-5-3-5-7-5-3-5-|-7-5-3-5-7-5-3-5-7-5-3-5-7-5-3-5-|
Bb|-8-------8-7--|-5----2-|---------------------------------|---------------------------------|
Gb|--------------|--------|---------------------------------|---------------------------------|
Db|--------------|--------|---------------------------------|---------------------------------|
Ab|--------------|--------|---------------------------------|---------------------------------|
Eb|--------------|--------|---------------------------------|---------------------------------|




eb|---------------|---------------|---------------------------------|
Bb|---------------|---------------|---------------------------------|
Gb|-5-------5--7--|-2-------------|---------------------------------|
Db|-5-------5--7--|-2-------------|-2-------2-------2-------2-------|
Ab|-3-------3--5--|-0-------------|-2---2-2-2---2-2-2---2-2-2---2-2-|
Eb|---------------|------0-3-0-3--|-0---0-0-0---0-0-0---0-0-0---0-0-|
  |
eb|-7-------7-10--|-3------2------|-7-5-3-5-7-5-3-5-7-5-3-5-7-5-3-5-|
Bb|---------------|---------------|---------------------------------|
Gb|---------------|---------------|---------------------------------|
Db|---------------|---------------|---------------------------------|
Ab|---------------|---------------|---------------------------------|
Eb|---------------|---------------|---------------------------------|
  |
eb|---------------|---------------|-7-5-3-5-7-5-3-5-7-5-3-5-7-5-3-5-|
Bb|-8-------8-10--|-5------2------|---------------------------------|
Gb|---------------|---------------|---------------------------------|
Db|---------------|---------------|---------------------------------|
Ab|---------------|---------------|---------------------------------|
Eb|---------------|---------------|---------------------------------|


eb|---------------------------------------------||
Bb|---------------------------------------------||
Gb|---------------------------------------------||
Db|--2----------2----------2----------2---------||
Ab|--2----2--2--2----2--2--2----2--2--2----2--2-||
Eb|--0----0--0--0----0--0--0----0--0--0----0--0-||
  |
eb|-12-10-7-10-12-10-7-10-12-10-7-10-12-10-7-10-||
Bb|---------------------------------------------||
Gb|---------------------------------------------||
Db|---------------------------------------------||
Ab|---------------------------------------------||
Eb|---------------------------------------------||
  |
eb|--7--5-3--5--7--5-3--5--7--5-3--5--7--5-3--5-||
Bb|---------------------------------------------||
Gb|---------------------------------------------||
Db|---------------------------------------------||
Ab|---------------------------------------------||
Eb|---------------------------------------------||

Solo:
   Guitar1
eb|---------------------------|----------------------------------------------------------|
Bb|---------------------------|----------------------------------------------------------|
Gb|--7----9-------7--9--12-9--|--7----9--------------------5---------5-7-(7)-----7--7----|
Db|--7----9-------7--9--12-9--|--7----9--------------------5---------5-7-(7)-----7--7----|
Ab|--5----7-------5--7--10-7--|--5----7--------------------3---------3-5-(5)-----5--5----|
Eb|---------------------------|----------------------------------------------------------|
  |			                                                                  
  |Guitar2,3		                                                                  
eb|---------------------------|------------------------15--------------------------------|
Bb|-15----------(15)----------|-15-------15---------------15----(15)-----15----(15)------|
Gb|-14b16-------(14)----------|-14b16----14b16---14b16----14b16r(14)-----14b16r(14)---12-|
Db|---------------------------|----------------------------------------------------------|
Ab|---------------------------|----------------------------------------------------------|
Eb|---------------------------|----------------------------------------------------------|
eb|


eb|--------------------------------------|----------------------------------------------------|
Bb|--------------------------------------|----------------------------------------------------|
Gb|--7-9---------7-9--------12--9--------|--7--9----------------------------------------------|
Db|--7-9---------7-9--------12--9--------|--7--9------------------------9-----9---5--(5)-5-7--|
Ab|--5-7---------5-7--------10--7--------|--5--7------------------------9-----9---5--(5)-5-7--|
Eb|--------------------------------------|------------------------------7-----7---3--(3)-3-5--|
  |					                                                       
eb|--------------------------------------|----------------------------------------------------|
Bb|--------------------------------------|----------------------------------------------------|
Gb|--------------------------------------|----12-----12-14-12-14-14b16====14-14r(14)-12-------|
Db|-14----(14)\----------------12-----12-|-14-----14------------------------------------------|
Ab|-------------------12-13-14-----14----|----------------------------------------------------|
Eb|--------------------------------------|----------------------------------------------------|


[ Tab from: http://www.guitartabs.cc/tabs/s/sum_41/reign_in_pain_tab.html ]
eb|-----------------------------------------------------------------------------|
Bb|-----------------------------------------------------------------------------|
Gb|--5------------------------------------------------------5----4--------------|
Db|--5------------------------------------------------------5----4--------------|
Ab|--3------------------------------------------------------3----2--------------|
Eb|-----------------------------------------------------------------------------|
  |
eb|-----------------------------------------------------------------------------|
Bb|-----------------------------------------------------------------------------|
Gb|-16--14-12----------16-14-12----------16-14-12----------------------12-14-16-|
Db|-----------16-14-12----------16-14-12----------16-14-12-12-14----16----------|
Ab|-----------------------------------------------------------------------------|
Eb|-----------------------------------------------------------------------------|



eb|-------------------------------------------------------------------------|
Bb|-------------------------------------------------------------------------|
Gb|--2----------------------------------------------------------------------|
Db|--2-----------------------------------4----------------------------------|
Ab|--0-----------------------------------4----------------------------------|
Eb|--------------------------------------2----------------------------------|
  |
eb|-------------------------------------------------------------------------|
Bb|-------------------------------------------------------------------------|
Gb|-16-14-12----------16-14-12----------16-14-12-------------------12-14-16-|
Db|----------16-14-12----------16-14-12----------16-14-12-12-14-16----------|
Ab|-------------------------------------------------------------------------|
Eb|-------------------------------------------------------------------------|



eb|------------------------------------------------------------------------|
Bb|------------------------------------------------------------------------|
Gb|------------------------------------------------------------------------|
Db|--2--------------------2-----------------2----------------2-------------|
Ab|--2----------2--2------2------2------2---2---------2---2--2--------2--2-|
Eb|--0----------0--0------0------0------0---0---------0---0--0--------0--0-|
  |
eb|------------------------------------------------------------------------|
Bb|-15----(15)----15----(15)----15----(15)----15----(15)----------15-------|
Gb|-14b16r(14)-12-14b16r(14)-12-14b16r(14)-12-14b16r(14)-12-14b16----12-12-|
Db|------------------------------------------------------------------------|
Ab|------------------------------------------------------------------------|
Eb|------------------------------------------------------------------------|



eb|------------------------------------------------------------------------|
Bb|------------------------------------------------------------------------|
Gb|------------------------------------------------------------------------|
Db|--2--------------------2-----------------2----------------2-------------|
Ab|--2----------2--2------2------2------2---2----------2--2--2--2------2---|
Eb|--0----------0--0------0------0------0---0----------0--0--0--0------0---|
  |
eb|------------------------------------------------------------------------|
Bb|-15----(15)----15----(15)----15----(15)-15----(15)----------15b17r(15)--|
Gb|-14b16r(14)-12-14b16r(14)-12-14b16r(14)-14b16r(14)-12-------------------|
Db|------------------------------------------------------14\---------------|
Ab|------------------------------------------------------------------------|
Eb|------------------------------------------------------------------------|



eb|----------------------------|-------------------------|
Bb|----------------------------|-------------------------|
Gb|--5------------5----4-------|--2----------------------|
Db|--5------------5----4-------|--2----------------------|
Ab|--3------------3----2-------|--0----------------------|
Eb|----------------------------|-------0--3-----0-----3--|
  |
eb|--------15------------------|-------------------------|
Bb|-15b17--------15b17r===(15)-|-13------12h13p12----12--|
Gb|----------------------------|------------------14-----|
Db|----------------------------|-------------------------|
Ab|----------------------------|-------------------------|
Eb|----------------------------|-------------------------|



eb|-------------------------------------------------|
Bb|-------------------------------------------------|
Gb|-------------------------------------------------|
Db|--2-----------2-----------2-----------2----------|
Ab|--2-----2--2--2-----2--2--2-----2--2--2-----2--2-|
Eb|--0-----0--0--0-----0--0--0-----0--0--0-----0--0-|
  |
eb|-------------------------------------------------|
Bb|-12h13p12----12----------------------------------|
Gb|----------14----14-12-14-12-11-12-11----11-------|
Db|-------------------------------------14----14-12-|
Ab|-------------------------------------------------|
Eb|-------------------------------------------------|



eb|-------------------------------------------------------------||
Bb|-------------------------------------------------------------||
Gb|-------------------------------------------------------------||
Db|--2-----------2------2-------------------2-------------------||
Ab|--2-----2--2--2-2-2--2--------2----2-----2--------2----2-----||
Eb|--0-----0--0--0-0-0--0--------0----0-----0--------0----0-----||
  |
eb|--------------------19-17-15------------19-17-15-------------||
Bb|-----------------------------19-17---15----------15-17---19--||
Gb|-------------------------------------------------------------||
Db|-14-12-------------------------------------------------------||
Ab|-------16-14-12----------------------------------------------||
Eb|-------------------------------------------------------------||


Chorus:
   Guitar1
eb|--------------------------|--------------------|-----------------|---------------------------|
Bb|--------------------------|--------------------|-----------------|---------------------------|
Gb|--7-9----------7-9--12-9--|-7-9--5-5-7-(7)-7-7-|-7-9--7-9--12-9--|-7-9-----------------------|
Db|--7-9----------7-9--12-9--|-7-9--5-5-7-(7)-7-7-|-7-9--7-9--12-9--|-7-9---5-5--5-5--7--7--7-7-|
Ab|--5-7----------5-7--10-7--|-5-7--3-3-5-(5)-5-5-|-5-7--5-7--10-7--|-5-7---3-3--3-3--5--5--5-5-|
Eb|--------------------------|--------------------|-----------------|---------------------------|
  |					                                                    
  |Guitar2				                                                    
eb|---------------5-7--10-7--|-5-7--3-3-5-(5)-5-5-|-5-7--5-7--10-7--|-5-7---7----7-3-(3)-3--5---|
Bb|-17----(17)\--------------|--------------------|-----------------|---------------------------|
Gb|--------------------------|--------------------|-----------------|---------------------------|
Db|--------------------------|--------------------|-----------------|---------------------------|
Ab|--------------------------|--------------------|-----------------|---------------------------|
Eb|--------------------------|--------------------|-----------------|---------------------------|
  |					                                                    
  |Guitar3				                                                    
eb|--------------------------|--------------------|-----------------|---------------------------|
Bb|-17----(17)\---7-8--12-8--|-7-8--5-5-7-(7)-7-7-|-7-8--7-8--12-8--|-7-8--12---12-8-(8)-8-10---|
Gb|--------------------------|--------------------|-----------------|---------------------------|
Db|--------------------------|--------------------|-----------------|---------------------------|
Ab|--------------------------|--------------------|-----------------|---------------------------|
Eb|--------------------------|--------------------|-----------------|---------------------------|


Outro:
eb|----------------------------------|---------------------------------|
Bb|----------------------------------|---------------------------------|
Gb|-9-------9-------9--------9-------|-9-------9-------5-------7-------|
Db|-9-9-9-9-9-9-9-9-9-9-9-9--9-9-9-9-|-9-9-9-9-9-9-9-9-5-5-5-5-7-7-7-7-|
Ab|-7-7-7-7-7-7-7-7-7-7-7-7--7-7-7-7-|-7-7-7-7-7-7-7-7-3-3-3-3-5-5-5-5-|
Eb|----------------------------------|---------------------------------|
  |
eb|-5-7-7-7-7-7-7-7-5-7-7-7-10-7-7-7-|-5-7-7-7-7-7-7-7-3-3-3-5-5-5-5-5-|
Bb|----------------------------------|---------------------------------|
Gb|----------------------------------|---------------------------------|
Db|----------------------------------|---------------------------------|
Ab|----------------------------------|---------------------------------|
Eb|----------------------------------|---------------------------------|
  |
eb|----------------------------------|---------------------------------|
Bb|-7-8-8-8-8-8-8-8-7-8-8-8-12-8-8-8-|-7-8-8-8-8-8-8-8-5-5-5-7-7-7-7-7-|
Gb|----------------------------------|---------------------------------|
Db|----------------------------------|---------------------------------|
Ab|----------------------------------|---------------------------------|
Eb|----------------------------------|---------------------------------|


eb|----------------------------------|----------------------------------------|
Bb|----------------------------------|----------------------------------------|
Gb|-9-------9-------9--------9-------|-9-------9------------------------------|
Db|-9-9-9-9-9-9-9-9-9-9-9-9--9-9-9-9-|-9-9-9-9-9-9-9-9--9--9--9-5-5-5--7--(7)-|
Ab|-7-7-7-7-7-7-7-7-7-7-7-7--7-7-7-7-|-7-7-7-7-7-7-7-7--9--9--9-5-5-5--7--(7)-|
Eb|----------------------------------|------------------7--7--7-3-3-3--5--(5)-|
  |
eb|-5-7-7-7-7-7-7-7-5-7-7-7-10-7-7-7-|-5-7-7-7-7-7-7-7--7--7--7-3-3-3--5--(5)-|
Bb|----------------------------------|----------------------------------------|
Gb|----------------------------------|----------------------------------------|
Db|----------------------------------|----------------------------------------|
Ab|----------------------------------|----------------------------------------|
Eb|----------------------------------|----------------------------------------|
  |
eb|----------------------------------|----------------------------------------|
Bb|-7-8-8-8-8-8-8-8-7-8-8-8-12-8-8-8-|-7-8-8-8-8-8-8-8-12-12-12-8-8-8-10-(10)-|
Gb|----------------------------------|----------------------------------------|
Db|----------------------------------|----------------------------------------|
Ab|----------------------------------|----------------------------------------|
Eb|----------------------------------|----------------------------------------|
Comments