Sum 41 - Pieces Chords & Tabs

 

Pieces Chords & Tabs

Sum 41 Chords & Tabs

Version: 7 Type: Tab 0 ratings
1 star 2 stars 3 stars 4 stars 5 stars
comments

Pieces Tab

   
-----------------------------------------------------------------------------
			     Pieces - Sum 41
-----------------------------------------------------------------------------
Tabbed by: mike
Email: me_mike12@hotmail.com 

Tuning: drop d

                                
                                  GUITAR 1

intro/verse

e|----1--1-1---1--------1--1-1---1-----|
b|----3--3-3---3-xx-----1--1-1---1-xx--|
g|----2--2-2---2-xx--3--3--3-3-3-3-xx--|
d|-0--0--0-0-0-0-xx--3--3--3-3-3-3-xx--|
a|-0---------0---xx--1--1--1-1-1-1-xx--|
e|-0---------0-------------------------|

e|--------------------------------------------|
b|--------------------------------------------|
g|-1--1--1-1-1-1------0--0--0-0-0-0-----------|
d|-3--3--3-3-3-3------2--2--2-2-2-2-----------|
a|-3--3--3-3-3-3-xx---3--3--3-3-3-3-xx--------|
e|-3--3--3-3-3-3-xx---2--2--2-2-2-2-xx--------|

chorus

e|-1--1--1-1-1-1---1--1--1-1-1-1------|
b|-1--1--1-1-1-1---1--1--1-1-1-1------|
g|-3--3--3-3-3-3---3--3--3-3-3-3------|
d|-3--3--3-3-3-3---3--3--3-3-3-3------|
a|-1--1--1-1-1-1---1--1--1-1-1-1------|
e|------------------------------------|

e|----------------------------------------|             e|----|
b|----------------------------------------|             b|----|
g|-1--1--1-1-1-1----0--0--0-0-0-0---------|  x2  then   g|-3--| //let ring
d|-3--3--3-3-3-3----2--2--2-2-2-2---------|             d|-3--|
a|-3--3--3-3-3-3----3--3--3-3-3-3---------|             a|-1--|
e|-3--3--3-3-3-3----2--2--2-2-2-2---------|             e|----|

bridge

e|------------------1-1-1-11-1-1-1-----|
b|------------------1-1-1-11-1-1-1-----|
g|-1-1-1-11-1-1-1-1-3-3-3-33-3-3-3-5---|   x2
d|-3-3-3-33-3-3-3-3-3-3-3-33-3-3-3-5---|
a|-3-3-3-33-3-3-3-3-1-1-1-11-1-1-1-3---|
e|-3-3-3-33-3-3-3-3--------------------|

e|-----------------------------------------------|
b|-----------------------------------------------|
g|-7--7-7-7x-5-5-5-5x-3--3-3-3x-10-10-10-10-x----|  X2   
d|-7--7-7-7x-5-5-5-5x-3--3-3-3x-10-10-10-10-x----|
a|-5--5-5-5x-3-3-3-3x-1--1-1-1x--8--8--8--8-x----|
e|-----------------------------------------------|

e|----------------------------------|
b|----------------------------------|
g|----------------------------------|
d|-7-7-7-7-7-7-7-7-7-7-7-7-77777777-|
a|-7-7-7-7-7-7-7-7-7-7-7-7-77777777-|
e|-7-7-7-7-7-7-7-7-7-7-7-7-77777777-|

                                GUITAR 2

1st chorus

e|--------------------------------------------------|
b|-------10----------10----------10----------10-----|
g|----10----10----10----10----10----10----10----10--|
d|-12----------12----------12----------12-----------|
a|--------------------------------------------------|
e|--------------------------------------------------|
[ Tab from: http://www.guitartabs.cc/tabs/s/sum_41/pieces_tab_ver_7.html ]
e|----------------------------------------------|
b|-------10-----------10---------8--------8-----|
g|----10----10---10------10----9---9----9---9---|  x2
d|-10----------10--10-------10-------10---------|
a|----------------------------------------------|
e|----------------------------------------------|

e|-----|
b|-6---|
g|-7---|   //let ring
d|-8---|
a|-----|
e|-----|



2nd and 3rd verse/ pre-2nd verse

e|-------------------------------------------------------|
b|-10-10-10-1010-10-10-10-10-11-11-11-1111-11-11-11-11---|
g|-10-10-10-1010-10-10-10-10-10-10-10-1010-10-10-10-10---|
d|-------------------------------------------------------|
a|-------------------------------------------------------|
e|-------------------------------------------------------|

e|----------------------------------------------|
b|-10-10-10-1010-10-10-10-10-8-8-8-88-8-8-8-8---|   x1 for pre-2nd verse
g|-10-10-10-1010-10-10-10-10-9-9-9-99-9-9-9-9---|   x2 for 2nd and 3rd verse
d|----------------------------------------------|
a|----------------------------------------------|
e|----------------------------------------------|

main chorus

e|-------------------------------------------------------|
b|-11-11-11-1111-11-11-11-11-11-11-11-1111-11-11-11-11---|
g|-10-10-10-1010-10-10-10-10-10-10-10-1010-10-10-10-10---|
d|-------------------------------------------------------|
a|-------------------------------------------------------|
e|-------------------------------------------------------|

e|--------------------------(8-8-8-88-8-8-8-8)--|
b|-10-10-10-1010-10-10-10-10-8-8-8-88-8-8-8-8---|
g|-10-10-10-1010-10-10-10-10-9-9-9-99-9-9-9-9---|   x2 //only play top part
d|----------------------------------------------|      // in parentheses
a|----------------------------------------------|      // 2nd time
e|----------------------------------------------|

e|-----|
b|-11--|
g|-10--|   //let ring
d|-----|
a|-----|
e|-----|

bridge

e|---------------------------------------------------------|
b|-10-10-10-1010-10-10-10-10-11-11-11-1111-11-11-11-11-13--|
g|-10-10-10-1010-10-10-10-10-10-10-10-1010-10-10-10-10-12--|  x2
d|---------------------------------------------------------|
a|---------------------------------------------------------|
e|---------------------------------------------------------|

e|---------------------------------------------------------|
b|-10-10-10-1010-10-10-10-10-11-11-11-1111-11-11-11-11-13--|
g|-10-10-10-1010-10-10-10-10-10-10-10-1010-10-10-10-10-12--|   x2
d|---------------------------------------------------------|
a|---------------------------------------------------------|
e|---------------------------------------------------------|

e|-------8--------8------------------------------|
b|-10---------8-------------10----------10-------|
g|----10---10---9---9-10-------------10----10----|  x2
d|-----------------------12----12-10-------------|
a|-----------------------------------------------|
e|-----------------------------------------------|

e|-----|
b|-----|
g|-9---|   //let ring
d|-10--|
a|-----|
e|-----|




and that's all there is to it. gg and email me for questions or anything.
Comments