Sum 41 - Pieces Chords & Tabs

 

Pieces Chords & Tabs

Sum 41 Chords & Tabs

Version: 5 Type: Tab 0 ratings
1 star 2 stars 3 stars 4 stars 5 stars
comments

Pieces Tab

   
-----------------------------------------------------------------------------
			     Pieces-Sum 41
-----------------------------------------------------------------------------
Tabbed by:RuinFin
Email:RuinFin@aol.com

Tuning: Standard
[ Tab from: http://www.guitartabs.cc/tabs/s/sum_41/pieces_tab_ver_5.html ]
Intro/Verse (the strums pretty easy, its down down up up down down, just figure out the
timing of the strokes)
e|--1-1-1-1-1-1-------------------------------------------------------------|
B|--3-3-3-3-3-3-------------------------------------------------------------|
G|--2-2-2-2-2-2-3-3-3-3-3-3-2-2-2-2-2-2-5-5-5-5-5-5-------------------------|
D|0-0-0-0-0-0-0-3-3-3-3-3-3-3-3-3-3-3-3-5-5-5-5-5-5-------------------------|
A|--------------1-1-1-1-1-1-3-3-3-3-3-3-3-3-3-3-3-3-------------------------|
E|--------------------------1-1-1-1-1-1-0-0-0-0-0-0-------------------------|

Other Part
e|--------------------------------------------------------------------------|
B|--------------------------------------------------------------------------|
G|-7777777777777777-10101010------------------------------------------------|
D|-7777777777777777-10101010-10101010---------------------------------------|
A|-5555555555555555-88888888-10101010---------------------------------------|
E|---------------------------88888888---------------------------------------|


| /  slide up
| \  slide down
| h  hammer-on
| p  pull-off
| ~  vibrato
| +  harmonic
| x  Mute note
=============================================================================
Comments