Sum 41 - Pieces Chords & Tabs

 

Pieces Chords & Tabs

Sum 41 Chords & Tabs

Version: 4 Type: Tab 0 ratings
1 star 2 stars 3 stars 4 stars 5 stars
comments

Pieces Tab

Song : Pieces 
Artist : Sum 41
Album : Chuck

Tabbed by: fated2live
Email: anarcic@hotmail.com

It's one of my favourite from Sum 41's new album, Chuck. Try to turn down the distortion
and add a little reverb when playing it.

Standard tuning

Intro/verse (try figure out e strum pattern urself)
e|----------------------------------------------|
B|----------------------------------------------|
G|-7-7-7777----------------------5-5-5555-------|
D|-7-7-7777--8-8-8888--3-3-3333--5-5-5555-------|
A|-5-5-5555--8-8-8888--3-3-3333--3-3-3333-------|
E|-----------6-6-6666--1-1-1111-----------------|

Chorus (0:31 & 1:24)(downstroke)
e|--------------------------------------------------------------|
B|--------------------------------------------------------------|
G|-7777-7777-7777-7777-10101010-10101010-----------------------|
D|-7777-7777-7777-7777--10101010-10101010---10101010-10101010---|
A|-5555-5555-5555-5555--8-8-8-8-888-8----10101010-10101010---|
E|------------------------------------------8-8-8-8-8-8-8-8----|
   If you believe... ...soul, I'd say... ...all the words...
e|--------------------------------------------------------------|
B|--------------------------------------------------------------|
G|-7777-7777-7777-7777-10101010-10101010-----------------------|
D|-7777-7777-7777-7777--10101010-10101010---10101010-10101010---|
A|-5555-5555-5555-5555--8-8-8-8-888-8----10101010-10101010---|
E|------------------------------------------8-8-8-8-8-8-8-8----|
[ Tab from: http://www.guitartabs.cc/tabs/s/sum_41/pieces_tab_ver_4.html ]
e|----------------------------------------|
B|----------------------------------------|
G|----------------------------------------|
D|-8~-------------------------------------|
A|-8~-------------------------------------|
E|-6~-that I'm better off on my own-------|

repeat intro/verse
repeat chorus

bridge (1:48)
e|------------------------------------------------------|
B|------------------------------------------------------|
G|-10-10-10-12--10-10-10-12--10-10-10-12--14-14-14-14---|
D|-10-10-10-10--10-10-10-10--10-10-10-10--10-10-10-10---|
A|------------------------------------------------------|
E|------------------------------------------------------|x2

e|-----------------------------------------------------|
B|-------10-----------10-------------------------------|
G|-10-----------10----------------10---------10--------|
D|----10----10-----10----10---8----------8-------------|
A|------------------------------8-----8-----8----8-----|
E|-----------------------------------------------------|

e|-----------------------------------------------------|
B|-----------------------------------------------------|
G|-------10---------10---------10--------10------------|
D|-10----------10----------8---------8-----------------|
A|-----8----8-----8----8-----8----8----8----8----------|
E|-----------------------------------------------------|

e|--------------------------------|
B|--------------------------------|
G|-99999999-1414141414141414------|
D|-xxxxxxxx-xxxxxxxxxxxxxxxx------|
A|-77777777-1212121212121212------|
E|--------------------------------|

then repeat verse
& chorus

End on: e|--------|
        B|--------|
        G|--------|
        D|-3~-----|
        A|-3~-----|
        E|-1~-----|

Another fine song from a great band. enjoy & have fun.
Comments