Sum 41 - Pieces Chords & Tabs

 

Pieces Chords & Tabs

Sum 41 Chords & Tabs

Version: 3 Type: Tab 0 ratings
1 star 2 stars 3 stars 4 stars 5 stars
comments

Pieces Tab

   
-----------------------------------------------------------------------
			     Pieces - Sum 41
-----------------------------------------------------------------------
Tabbed by: Bella
Email: access_denied_404@hotmail.com

Tuning: standard tuning (E B G D A E)

Well, I hope this is accurate. It's the lead guitarist part to the song. Drop me a mail,
if there are any errors. Enjoy...

(00:28)
 --------------------------x2----------------------
E|---5-----5-----5-----5--|---5-----5-----5-----5--|5~|
B|6-8-6-6-8-6-6-8-6-6-8-6-|5-6-6-5-6-6-5-6-6-5-6-6-|--|
G|------------------------|------------------------|--|
D|------------------------|------------------------|--|
A|------------------------|------------------------|--|
E|------------------------|------------------------|--|

E|5-5-5-5-5-5-5-5-6-6-6-6-6-6-6-6-5-5-5-5-5-5-5-5-3-3-3-3-3-3-3-3-|
B|----------------------------------------------------------------|
G|----------------------------------------------------------------| x3
D|----------------------------------------------------------------|
A|----------------------------------------------------------------|
E|----------------------------------------------------------------|
[ Tab from: http://www.guitartabs.cc/tabs/s/sum_41/pieces_tab_ver_3.html ]
 --------------------------x2----------------------------
E|---5-----5-----5-----55-5-5-5-5-5-5-5-3-3-3-3-3-3-3-3-|5~|
B|6-8-6-6-8-6-6-8-6-6-8-6--------------------------------|--|
G|-------------------------------------------------------|--|
D|-------------------------------------------------------|--|
A|-------------------------------------------------------|--|
E|-------------------------------------------------------|--|

 ---------------x2----------------
E|5-5-5-6-5-5-5-6-5-5-5-6-8-8-8-8-|5-8-----8-----5-----5--|--------|
B|--------------------------------|-6-6-8-5-5-6-5-6-5-6-6-|55555555|
G|--------------------------------|-----------------------|--------|
D|--------------------------------|-----------------------|--------|
A|--------------------------------|-----------------------|--------|
E|--------------------------------|-----------------------|--------|

E|5-5-5-5-5-5-5-5-6-6-6-6-6-6-6-6-5-5-5-5-5-5-5-5-3-3-3-3-3-3-3-3-|
B|----------------------------------------------------------------|
G|----------------------------------------------------------------| x3
D|----------------------------------------------------------------|
A|----------------------------------------------------------------|
E|----------------------------------------------------------------|

 --------------------------x2----------------------------
E|---5-----5-----5-----55-5-5-5-5-5-5-5-3-3-3-3-3-3-3-3-|5~|
B|6-8-6-6-8-6-6-8-6-6-8-6--------------------------------|--|
G|-------------------------------------------------------|--|
D|-------------------------------------------------------|--|
A|-------------------------------------------------------|--|
E|-------------------------------------------------------|--|


| /  slide up
| \  slide down
| h  hammer-on
| p  pull-off
| ~  vibrato
| +  harmonic
| x  Mute note
===============================================================================
Comments