Sum 41 - Pieces Chords & Tabs

 

Pieces Chords & Tabs

Sum 41 Chords & Tabs

Version: 10 Type: Tab 0 ratings
1 star 2 stars 3 stars 4 stars 5 stars
comments

Pieces Tab

   
-------------------------------------------------------------------------------
			     Pieces - Sum 41
-------------------------------------------------------------------------------
Tabbed by: mitch paradis
Email: fox69_deadly@hotmail.com

this is a pretty good song an all of the tabs ive seen for it have been wrong 
so i tabbed it myself. this is my first tab an i'm only 15 so theres probably  
a couple of mistakes, but its got the right idea.

uning: standard but i have no idea. there probably is a better tuning so e-mail
 me if you can find a better tuning for this song

INTRO: you'll have to listen to the song to figure out the pattern but this is 
basically it.

e|---------------------------------------------------------------------------|
B|---------------------------------------------------------------------------|
G|-3--7-7-7-7-7-7------------------------------------------------------------|
D|-3--7-7-7-7-7-7--8-8-8-8-8-8--3-3-3-3-3-3--2-2-2-2-2-2---------------------|
A|-1--5-5-5-5-5-5--8-8-8-8-8-8--3-3-3-3-3-3--2-2-2-2-2-2---------------------|
E|-----------------6-6-6-6-6-6--1-1-1-1-1-1--0-0-0-0-0-0---------------------|

e|---------------------------------------------------------------------------|
B|---------------------------------------------------------------------------|
G|-3--7-7-7-7-7-7------------------------------------------------------------|
D|-3--7-7-7-7-7-7--8-8-8-8-8-8--3-3-3-3-3-3--2-2-2-2-2-2---------------------|
A|-1--5-5-5-5-5-5--8-8-8-8-8-8--3-3-3-3-3-3--2-2-2-2-2-2---------------------|
E|-----------------6-6-6-6-6-6--1-1-1-1-1-1--0-0-0-0-0-0---------------------|
   i tryed to be perfect...
e|---------------------------------------------------------------------------|
B|---------------------------------------------------------------------------|
G|-3--7-7-7-7-7-7------------------------------------------------------------|
D|-3--7-7-7-7-7-7--8-8-8-8-8-8--3-3-3-3-3-3--2-2-2-2-2-2---------------------|
A|-1--5-5-5-5-5-5--8-8-8-8-8-8--3-3-3-3-3-3--2-2-2-2-2-2---------------------|
E|-----------------6-6-6-6-6-6--1-1-1-1-1-1--0-0-0-0-0-0---------------------|
   i thought it'd be easy...

CHORUS: again, listen to the song for the pattern. for the picking part you'll 
need two guitars, one for the struming an one picking, but the sound is pretty 
sweet.

e|---------------------------------------------------------------------------|
B|---------------------------------------------------------------------------|
G|---------------------------------------------------------------------------|
D|-8-8-8-8-8-8-8-8-8-8-8-8-8-8-8-8--3-3-3-3-3-3-3-3--2-2-2-2-2-2-2-2---------|
A|-8-8-8-8-8-8-8-8-8-8-8-8-8-8-8-8--3-3-3-3-3-3-3-3--2-2-2-2-2-2-2-2---------|
E|-6-6-6-6-6-6-6-6-6-6-6-6-6-6-6-6--1-1-1-1-1-1-1-1--0-0-0-0-0-0-0-0---------|

e|---------------------------------------------------------------------------|
B|---------------------------------------------------------------------------|
G|---------------------------------------------------------------------------|
D|-8-8-8-8-8-8-8-8-8-8-8-8-8-8-8-8--3-3-3-3-3-3-3-3--2-2-2-2-2-2-2-2--8------|
A|-8-8-8-8-8-8-8-8-8-8-8-8-8-8-8-8--3-3-3-3-3-3-3-3--2-2-2-2-2-2-2-2--8------|
E|-6-6-6-6-6-6-6-6-6-6-6-6-6-6-6-6--1-1-1-1-1-1-1-1--0-0-0-0-0-0-0-0--6------|


heres the picking part that comes in when the chorus starts

e|---------------------------------------------------------------------------|
B|---------------------------------------------------------------------------|
G|---------------------------------------------------------------------------|
D|---------8----------------8----------------8----------------8--------------|
A|---8---8---8---8----8---8---8---8----8---8---8---8----8---8---8---8--------|
E|-6---6-------6----6---6-------6----6---6-------6----6---6-------6----------|

e|---------------------------------------------------------------------------|
B|---------------------------------------------------------------------------|
G|---------------------------------------------------------------------------|
D|---------3----------------3----------------2----------------2--------------|
A|---3---3---3---3----3---3---3---3----2---2---2---2----2---2---2---2--------|
E|-1---1-------1----1---1-------1----0---0-------0----0---0-------0----------|

VERSE: the part played on the electric guitar is pretty straight forward, but 
on the acoustic part you'll have to find out the pattern from the song.

e|---------------------------------------------------------------------------|
B|---------------------------------------------------------------------------|
G|-7-7-7-7-7-7-7-7--9-9-9-9-9-9-9-9--6-6-6-6-6-6-6-6--4-4-4-4-4-4-4-4--------|
D|-7-7-7-7-7-7-7-7--9-9-9-9-9-9-9-9--6-6-6-6-6-6-6-6--4-4-4-4-4-4-4-4--------|
A|-5-5-5-5-5-5-5-5--7-7-7-7-7-7-7-7--4-4-4-4-4-4-4-4--2-2-2-2-2-2-2-2--------|
E|---------------------------------------------------------------------------|

e|---------------------------------------------------------------------------|
B|---------------------------------------------------------------------------|
G|-7-7-7-7-7-7-7-7--9-9-9-9-9-9-9-9--6-6-6-6-6-6-6-6--4-4-4-4-4-4-4-4--------|
D|-7-7-7-7-7-7-7-7--9-9-9-9-9-9-9-9--6-6-6-6-6-6-6-6--4-4-4-4-4-4-4-4--------|
A|-5-5-5-5-5-5-5-5--7-7-7-7-7-7-7-7--4-4-4-4-4-4-4-4--2-2-2-2-2-2-2-2--------|
E|---------------------------------------------------------------------------|

e|---------------------------------------------------------------------------|
B|---------------------------------------------------------------------------|
G|-7-7-7-7-7-7-7-7--9-9-9-9-9-9-9-9--6-6-6-6-6-6-6-6--4-4-4-4-4-4-4-4--------|
D|-7-7-7-7-7-7-7-7--9-9-9-9-9-9-9-9--6-6-6-6-6-6-6-6--4-4-4-4-4-4-4-4--------|
A|-5-5-5-5-5-5-5-5--7-7-7-7-7-7-7-7--4-4-4-4-4-4-4-4--2-2-2-2-2-2-2-2--------|
E|---------------------------------------------------------------------------|

VERSE: this acoustic part is pretty easy since its the same as the intro, so 
just switch chords each time the electric guitar switches.

e|---------------------------------------------------------------------------|
B|---------------------------------------------------------------------------|
G|-7-------------------------------------------------------------------------|
D|-7----------------8----------------3----------------2----------------------|
A|-5----------------8----------------3----------------2----------------------|
E|------------------6----------------1----------------0----------------------|

e|---------------------------------------------------------------------------|
B|---------------------------------------------------------------------------|
G|-7-------------------------------------------------------------------------|
D|-7----------------8----------------3----------------2----------------------|
A|-5----------------8----------------3----------------2----------------------|
E|------------------6----------------1----------------0----------------------|


CHORUS: just keep the same rhythm as the verse with the chorus and it'll sound 
great. 

e|---------------------------------------------------------------------------|
B|---------------------------------------------------------------------------|
G|---------------------------------------------------5-5-5-5-5-5-5-5---------|
D|-8-8-8-8-8-8-8-8-8-8-8-8-8-8-8-8--3-3-3-3-3-3-3-3--5-5-5-5-5-5-5-5---------|
A|-8-8-8-8-8-8-8-8-8-8-8-8-8-8-8-8--3-3-3-3-3-3-3-3--3-3-3-3-3-3-3-3---------|
E|-6-6-6-6-6-6-6-6-6-6-6-6-6-6-6-6--1-1-1-1-1-1-1-1--------------------------|

e|---------------------------------------------------------------------------|
B|---------------------------------------------------------------------------|
G|---------------------------------------------------5-5-5-5-5-5-5-5---------|
D|-8-8-8-8-8-8-8-8-8-8-8-8-8-8-8-8--3-3-3-3-3-3-3-3--5-5-5-5-5-5-5-5--8------|
A|-8-8-8-8-8-8-8-8-8-8-8-8-8-8-8-8--3-3-3-3-3-3-3-3--3-3-3-3-3-3-3-3--8------|
E|-6-6-6-6-6-6-6-6-6-6-6-6-6-6-6-6--1-1-1-1-1-1-1-1-------------------6------|

CHORUS: this acoustic part is the same as the first chorus so just find the 
pattern and play it. 
[ Tab from: http://www.guitartabs.cc/tabs/s/sum_41/pieces_tab_ver_10.html ]
e|---------------------------------------------------------------------------|
B|---------------------------------------------------------------------------|
G|---------------------------------------------------------------------------|
D|-8--------------------------------3----------------2-----------------------|
A|-8--------------------------------3----------------2-----------------------|
E|-6--------------------------------1----------------0-----------------------|

e|---------------------------------------------------------------------------|
B|---------------------------------------------------------------------------|
G|---------------------------------------------------------------------------|
D|-8--------------------------------3----------------2----------------8------|
A|-8--------------------------------3----------------2----------------8------|
E|-6--------------------------------1----------------0----------------6------|


BRIDGE: heres the first chunk of the bridge here

e|---------------------------------------------------------------------------|
B|---------------------------------------------------------------------------|
G|-5-5-5-7-5-5-5-7-5-5-5-7-9-9-9-9--5-5-5-7-5-5-5-7-5-5-5-7-9-9-9-9----------|
D|-5-5-5-7-5-5-5-7-5-5-5-7-9-9-9-9--5-5-5-7-5-5-5-7-5-5-5-7-9-9-9-9----------|
A|-3-3-3-5-3-3-3-5-3-3-3-5-7-7-7-7--3-3-3-5-3-3-3-5-3-3-3-5-7-7-7-7----------|
E|---------------------------------------------------------------------------|
   the acoustic part goes as follows. again find the pattern yourself.
e|---------------------------------------------------------------------------|
B|---------------------------------------------------------------------------|
G|---------------------------------------------------------------------------|
D|-2------------4--------------4/6--2------------4--------------4/6----------|
A|-2------------4--------------4/6--2------------4--------------4/6----------|
E|-0------------2--------------2/4--0------------2--------------2/4----------|

SOLO: this little solo thing goes like this 

e|---------------------------------------------------------------------------|
B|------11---------9--------7--------------11----------9--------7------------|
G|-11-9----11--9-7---9--7-6---7-5~----11-9----11--9--7---9--7-6---7-5~-------|
D|---------------------------------------------------------------------------|
A|---------------------------------------------------------------------------|
E|---------------------------------------------------------------------------|

the acoustic keeps up in the backround

e|---------------------------------------------------------------------------|
B|---------------------------------------------------------------------------|
G|---------------------------------------------------------------------------|
D|-8-----------6--------4-------2-----8-----------6---------4-------2--------|
A|-8-----------6--------4-------2-----8-----------6---------4-------2--------|
E|-6-----------4--------2-------0-----6-----------4---------2-------0--------|

the electric keeps fonig with this little post-solo

e|---------------------------------------------------------------------------|
B|---------------------------------------------------------------------------|
G|-7-7-8-7-8-8--8-7~---------------------------------------------------------|
D|---------------------------------------------------------------------------|
A|---------------------------------------------------------------------------|
E|---------------------------------------------------------------------------|

with the acoustic still goin in the backround

e|---------------------------------------------------------------------------|
B|---------------------------------------------------------------------------|
G|---------------------------------------------------------------------------|
D|-5--------------8----------------------------------------------------------|
A|-5--------------8----------------------------------------------------------|
E|-3--------------6----------------------------------------------------------|

PRE-CHORUS: just play it like the verse

e|---------------------------------------------------------------------------|
B|---------------------------------------------------------------------------|
G|-7-7-7-7-7-7-7-7--9-9-9-9-9-9-9-9--6-6-6-6-6-6-6-6--4-4-4-4-4-4-4-4--------|
D|-7-7-7-7-7-7-7-7--9-9-9-9-9-9-9-9--6-6-6-6-6-6-6-6--4-4-4-4-4-4-4-4--------|
A|-5-5-5-5-5-5-5-5--7-7-7-7-7-7-7-7--4-4-4-4-4-4-4-4--2-2-2-2-2-2-2-2--------|
E|---------------------------------------------------------------------------|
  "i tryed to be perfect..."
e|---------------------------------------------------------------------------|
B|---------------------------------------------------------------------------|
G|-7-7-7-7-7-7-7-7--9-9-9-9-9-9-9-9--6-6-6-6-6-6-6-6--4-4-4-4-4-4-4-4--------|
D|-7-7-7-7-7-7-7-7--9-9-9-9-9-9-9-9--6-6-6-6-6-6-6-6--4-4-4-4-4-4-4-4--------|
A|-5-5-5-5-5-5-5-5--7-7-7-7-7-7-7-7--4-4-4-4-4-4-4-4--2-2-2-2-2-2-2-2--------|
E|---------------------------------------------------------------------------|
  "its hard to believe me..."

  the acoustic part goes
e|---------------------------------------------------------------------------|
B|---------------------------------------------------------------------------|
G|-7-------------------------------------------------------------------------|
D|-7----------------8----------------3----------------2----------------------|
A|-5----------------8----------------3----------------2----------------------|
E|------------------6----------------1----------------0----------------------|

e|---------------------------------------------------------------------------|
B|---------------------------------------------------------------------------|
G|-7-------------------------------------------------------------------------|
D|-7----------------8----------------3----------------2----------------------|
A|-5----------------8----------------3----------------2----------------------|
E|------------------6----------------1----------------0----------------------|
 
CHORUS: the electric goes like the 2nd chorus

e|---------------------------------------------------------------------------|
B|---------------------------------------------------------------------------|
G|---------------------------------------------------5-5-5-5-5-5-5-5---------|
D|-8-8-8-8-8-8-8-8-8-8-8-8-8-8-8-8--3-3-3-3-3-3-3-3--5-5-5-5-5-5-5-5---------|
A|-8-8-8-8-8-8-8-8-8-8-8-8-8-8-8-8--3-3-3-3-3-3-3-3--3-3-3-3-3-3-3-3---------|
E|-6-6-6-6-6-6-6-6-6-6-6-6-6-6-6-6--1-1-1-1-1-1-1-1--------------------------|

e|---------------------------------------------------------------------------|
B|---------------------------------------------------------------------------|
G|---------------------------------------------------5-5-5-5-5-5-5-5---------|
D|-8-8-8-8-8-8-8-8-8-8-8-8-8-8-8-8--3-3-3-3-3-3-3-3--5-5-5-5-5-5-5-5--8------|
A|-8-8-8-8-8-8-8-8-8-8-8-8-8-8-8-8--3-3-3-3-3-3-3-3--3-3-3-3-3-3-3-3--8------|
E|-6-6-6-6-6-6-6-6-6-6-6-6-6-6-6-6--1-1-1-1-1-1-1-1-------------------6------|
  
  the acoustic still goes like the 2nd chorus 
e|---------------------------------------------------------------------------|
B|---------------------------------------------------------------------------|
G|---------------------------------------------------------------------------|
D|-8--------------------------------3----------------2-----------------------|
A|-8--------------------------------3----------------2-----------------------|
E|-6--------------------------------1----------------0-----------------------|

e|---------------------------------------------------------------------------|
B|---------------------------------------------------------------------------|
G|---------------------------------------------------------------------------|
D|-8--------------------------------3----------------2----------------8------|
A|-8--------------------------------3----------------2----------------8------|
E|-6--------------------------------1----------------0----------------6------|

   thats all there is to it. its a good song and this tab should be easy to read 
and play. there may be a few mistakes so if you have any corrections, comments,
or find the right tuning e-mail me at fox69_deadly@hotmail.com

o yah and if you live around the nipawin, saskatchewan, gimme  call an we'll make
a band.(canada)

| /  slide up
| \  slide down
| h  hammer-on
| p  pull-off
| ~  vibrato
| +  harmonic
| x  Mute note
===============================================================================
Comments