Sum 41 - Pieces Chords & Tabs

 

Pieces Chords & Tabs

Sum 41 Chords & Tabs

Version: 1 Type: Tab 4 ratings
1 star 2 stars 3 stars 4 stars 5 stars
comments

Pieces Tab

Everyone elses version is completely wrong. The song is in drop D tuning.


                 
E|---------------------------------------------------||
B|-666666------------------------------------------||
G|-777777--------555555-555555---------------------||
D|-777777-888888-xxxxxx-xxxxxx---------------------||
A|-555555-888888-333333-333333---------------------||
D|--------888888-333333-222222---------------------||

/-----------------------------------------------------    /------------------------------------
                              
E|----------------------------------------------------||  E|----------------------------------||
B|----------------------------------------------------||  B|----------------------------------||
G|-3333333333333333-55555555-55555555-3----------------|| G|-3~-------------------------------||
D|-3333333333333333-xxxxxxxx-xxxxxxxx-3----------------|| D|-3~-------------------------------||
A|-1111111111111111-33333333-33333333-1----------------|| A|-1~-------------------------------||
E|------------------33333333-22222222-----------------||  E|----------------------------------||

                              ||
E|-------5-------------------3------------------------||
B|-6---6---6----x6-----5---5---5----x2----------------||
G|---5-------5-----------5-------5--------------------||
D|----------------------------------------------------||
A|----------------------------------------------------||
E|----------------------------------------------------||

                         ||
E|----------------------------------------------------||
B|----------------------------------------------------||
G|-77777777-33333333-55555555-55555555----------------||
D|-77777777-33333333-xxxxxxxx-xxxxxxxx----------------||
A|-55555555-11111111-33333333-33333333----------------||
D|-------------------33333333-22222222----------------||
[ Tab from: http://www.guitartabs.cc/tabs/s/sum_41/pieces_tab.html ]
/                                                                 ||
E|----------------------------------------------------------------------------------------||
B|-10-10-10-10-10-10-10-10--11-11-11-11-11-11-11-11--10-10-10-10-10-10-10-10-10--88888888-||
G|-10-10-10-10-10-10-10-10--10-10-10-10-10-10-10-10--10-10-10-10-10-10-10-10-10--99999999-||
D|----------------------------------------------------------------------------------------||
A|----------------------------------------------------------------------------------------||
E|----------------------------------------------------------------------------------------||
                        
E|----------------------------------------------------||  E|----------------------------------||
B|----------------------------------------------------||  B|----------------------------------||
G|-3333333333333333-55555555-55555555-----------------||  G|-3~-------------------------------||
D|-3333333333333333-xxxxxxxx-xxxxxxxx-----------------||  D|-3~-------------------------------||
A|-1111111111111111-33333333-33333333-----------------||  A|-1~-------------------------------||
E|------------------33333333-22222222-----------------||  E|----------------------------------||

                                    ||
E|--------------------------------------------------------||
B|--------------------------------------------------------||
G|----------3333-5555-------------------------------------||
D|-33333333-3333-5555-------------------------------------||
A|-33333333-1111-3333-------------------------------------||
D|-33333333-----------------------------------------------||

                                   ||
E|--------------------------------------------------------||
B|-10-10-10-11--10-10-10-11--10-10-10-11--13-13-11-11-----||
G|-10-10-10-10--10-10-10-10--10-10-10-10--10-10-10-10-----||
D|--------------------------------------------------------||
A|--------------------------------------------------------||
E|--------------------------------------------------------||

                                   ||
E|--------------------------------------------------------||
B|--------------------------------------------------------||
G|-7xx7-----5xx5-----3xx3---------------------------------||
D|-7xx7-----5xx5-----3xx3-----3333------------------------||
A|-5xx5-----3xx3-----1xx1-----3333------------------------||
D|----------------------------3333------------------------||


                                ||
E|-------8--------------8------------5------------5-------||
B|-10-------10-----8-------8----6--------------6----------||
G|-----10-------------9------------7---7----5--------5----||
D|--------------------------------------------------------||
A|--------------------------------------------------------||
E|--------------------------------------------------------||

                                        ||
E|----------------------------------------------------------------||
B|----------------------------------------------------------------||
G|-2222222222222222-----------------------------------------------||
D|-2222222222222222-----------------------------------------------||
A|-0000000000000000-----------------------------------------------||
D|----------------------------------------------------------------||

                               ||
E|----------------------------------------------------||
B|----------------------------------------------------||
G|-77777777-33333333-55555555-55555555----------------||
D|-77777777-33333333-xxxxxxxx-xxxxxxxx----------------||
A|-55555555-11111111-33333333-33333333----------------||
D|-------------------33333333-22222222----------------||

                             
E|----------------------------------------------------||  E|----------------------------------||
B|----------------------------------------------------||  B|----------------------------------||
G|-3333333333333333-55555555-55555555-----------------||  G|-3~-------------------------------||
D|-3333333333333333-xxxxxxxx-xxxxxxxx-----------------||  D|-3~--3~---------------------------||
A|-1111111111111111-33333333-33333333-----------------||  A|-1~--3~---------------------------||
E|------------------33333333-22222222-----------------||  E|-----3~---------------------------||
Comments