Sum 41 - Pieces Chords & Tabs

 

Pieces Chords & Tabs

Sum 41 Chords & Tabs

Version: 4 Type: Bass Tab

Pieces Bass Tab

   
(guitar and vocals for a while, and then...)
Verse 1
G:----------------------------------------------------------------|
D:----------------------------------------------------------------|
A:5-5-5-5-555-5-5-1-1-1-1-111-1-1-----------------3-3-3-3-333-3-3-| x2
E:--------------------------------1-1-1-1-111-1-1-----------------|

G:---------------------------------------------------------------|
D:---------------------------------------------------------------|
A:5-5-5-5-555-5-5-1-1-1-1-111-1-1/8-8-8-8-888-8-8-10-10-10-7--5\-|
E:---------------------------------------------------------------|

Chorus 1
G:-----------------------------------------------------------------|
D:-----------------------------------------------------------------|
A:1-1-1-1-1-1-1-1-1-1-1-1-1-1-1-1/8-8-8-8-8-8-8-8------------------| x2
E:------------------------------------------------8-8-8-8-8-8-8-8\-|

G:-----|
D:-----|
A:1~~~-|
E:-----|

Bridge
G:--------------------------------|
D:--------------------------------|
A:----------------1-1-1-1-1-1-1-3-| x2
E:1-1-1-1-1-1-1-11----------------|

G:------------------------------------|
D:------------------------------------|
A:5-5-5-55-3-3-3-33-1-1-1-11/888-8-88-| x2
E:------------------------------------|
[ Tab from: http://www.guitartabs.cc/tabs/s/sum_41/pieces_btab_ver_4.html ]
G:-----------------------------------------|
D:-----------------------------------------|
A:0-0-0-0-0-0-0-0-0-0-0-0/1212121212121212-|(those are twelves)
E:-----------------------------------------|

Verse 2
G:------------------------------------------------------------------|
D:---------------------------------3-3-3-3-333-3-33-----------------|
A:5-5-5-5-555-5-55-1-1-1-1-111-1-11----------------3-3-3-3-333-3-33-|
E:------------------------------------------------------------------|

G:-----------------------------------------------------------------|
D:-----------------------------------------------------------------|
A:5-5-5-5-55-5-55-1-1-1-1-111-1-11/8-8-8-8-888-8-88-10-10-10-7--5\-|
E:-----------------------------------------------------------------|

Chorus 2
G:--------------------------------------------------------------------|
D:--------------------------------------------------------------------|
A:1-1-1-11-1-1-1-11-1-1-1-11-1-1-1-1/8-8-8-8-8-8-8-88-----------------|
E:---------------------------------------------------8-8-8-8-8-8-8-88-|

G:------------------------------------------------------------------------------|
D:------------------------------------------------------------------------------|
A:1-1-1-11-1-1-1-11-1-1-1-11-1-1-1-1/8-8-8-8-8-8-8-8-10-10-10-10-10-10-10-10\---|
E:---------------------------------------------------------------------------6~-|