Sum 41 - Pain For Pleasure Chords & Tabs

 

Pain For Pleasure Chords & Tabs

Sum 41 Chords & Tabs

Version: 9 Type: Tab 0 ratings
1 star 2 stars 3 stars 4 stars 5 stars
comments

Pain For Pleasure Tab

   
tabbed by chris kidwell from WALES! thats in the united kingdom for the people who 
don't know.

*=palm mute

INTRO
e--------------------------------------------------
B--------------------------------------------------
G--------------------------------------------------
D--------------------------------------------------
A--------------------------------------------------
E-11---11-11---11---11-11---11---11-11-11-11-11-11-
  *    *  *    *    *  *    *    *  *  *  *  *  *
play this fast! i had to put spaces to show they were 11s and not loads of 1s


e----------------------------------------------------------
B----------------------------------------------------------
G----------------------------------------------------------
D-1-11-1-11-1-11-1-1-3-33-3-33-3-33-3-3-4-44-4-44-4-44-4-4-
A----------------------------------------------------------
E----------------------------------------------------------

e---------------------
B---------------------
G---------------------
D-6-66-6-66-6-66-6-66-
A---------------------
E---------------------


e---------------------------------------------
B---------------------------------------------
G-88---------66---------44---------33---------
D-88-3h4-3-1-66-3h4-3-1-44-3h4-3-1-33-3h4-3-1-
A-66---------44---------22---------11---------
E---------------------------------------------

e--------------------------------------------
B--------------------------------------------
G-88-2h3-1---66-2h3-1---44-2h3-1---4-3-1-----
D-88-------4-66-------4-44-------4-------3-4-
A-66---------44---------22-------------------
E--------------------------------------------

[ Tab from: http://www.guitartabs.cc/tabs/s/sum_41/pain_for_pleasure_tab_ver_9.html ]
e-6-4-2-4-2-1---6-4-2-4-2----6-4-2-4-2----6-4-2-4-1-2-
B-------------------------4------------3--------------
G-----------------------------------------------------
D-----------------------------------------------------
A-----------------------------------------------------
E-----------------------------------------------------
play this part again but on the second time dont play the 2 on the very end, just go 
straight into the verse.

verse
e----------------------------------------------------------
B----------------------------------------------------------
G-8-88-8-88-8-88-8-8-6-66-6-66-6-66-6-6-4-44-4-44-4-44-4-4-
D-8-88-8-88-8-88-8-8-6-66-6-66-6-66-6-6-4-44-4-44-4-44-4-4-
A-6-66-6-66-6-66-6-6-4-44-4-44-4-44-4-4-2-22-2-22-2-22-2-2-
E----------------------------------------------------------
    ** * ** * ** *     ** * ** * ** *     ** * ** * ** *

e--------------------
B--------------------
G-3-33-3-33-3-33-3-6-
D-3-33-3-33-3-33-3-6- x2
A-1-11-1-11-1-11-1-4-
E--------------------
    ** * ** * ** 

e--------------------------------------------------
B--------------------------------------------------
G-8-88-8-88-8-88-8-8-10-1010-10-1010-10-1010-10-10-
D-x-xx-x-xx-x-xx-x-x--x--x-x--x--x-x--x--x-x--x--x-
A-6-66-6-66-6-66-6-6--6--8-8--8--8-8--8--8-8--8--8-
E--------------------------------------------------

e----------------------------------------------------------
B----------------------------------------------------------
G-11-1111-11-1111-11-1111-11-11-13-1313-13-1313-13-1313-13-
D--x--x-x--x--x-x--x--x-x--x--x--x--x-x--x--x-x--x--x-x--x-
A--9--9-9--9--9-9--9--9-9--9--9-10-1010-10-1010-10-1010-10-
E----------------------------------------------------------

e----
B----
G-13-
D--x- x2
A-10-
E----

chorus
e---------------------------------------------------------
B---------------------------------------------------------
G-8--8-6-8--3333333344446666-8--8-6-8-33333333444466664444
D-8--8-6-8--3333333344446666-8--8-6-8-33333333444466664444
A-6--6-4-6--1111111122224444-6--6-4-6-11111111222244442222
E---------------------------------------------------------

e----------------------
B----------------------
G-666644446666-8--8-6-8
D-666644446666-8--8-6-8
A-444422224444-6--6-4-6
E----------------------

hope this helps helps! think i got the intro right and the rest of the song should be 
fine. have fun learning this song!
Comments