Sum 41 - Pain For Pleasure Chords & Tabs

 

Pain For Pleasure Chords & Tabs

Sum 41 Chords & Tabs

Version: 6 Type: Tab 0 ratings
1 star 2 stars 3 stars 4 stars 5 stars
comments

Pain For Pleasure Tab

man so many people dont know how to right tabs...this one is 100% right:

intro 1st guitar a whole bunch of times
e:---------------------------------------
B:---------------------------------------
G:---------------------------------------
D:-1-11-1-11-1-11-1111-1-----------------
A:---------------------------------------
E:---------------------------------------
         P.M.


2nd guitar comes in in some unknown time 
e:---------------------------------------
B:---------------------------------------
G:---------------------------------------
D:-111111-333333-4444-6666---------------
A:---------------------------------------
E:---------------------------------------
P.M.------------|

Both guitars - the chords dont look right but they are
e:-----------------------------------------------------
B:-44--------------------------------------------------
G:-33-----------66-----------44-----------33-----------
D:-11--3h4-3-1--66--3h4-3-1--44--3h4-3-1--33--3h4-3-1--
A:--------------44-----------22-----------11-----------
E:-----------------------------------------------------

1st guitar
e:-----------------------------------------------------
B:-44--------------------------------------------------
G:-33--2h3-1----66--2h3-1----44--2h3-1----33--2h3-1----
D:-11--------4--66--------4--44--------4--33--------4--
A:--------------44-----------22-----------11-----------
E:-----------------------------------------------------

2nd guitar
e:-----------------------------------------------------
B:-44--------------------------------------------------
G:-33-----------66-----------44-----------33-----------
D:-11--3h4-3-1--66--3h4-3-1--44--3h4-3-1--33--3h4-3-1--
A:--------------44-----------22-----------11-----------
E:-----------------------------------------------------


bridge into verse 1st guitar 2(x)
e:-7-5---5------7-5---5------7-5---5------7-5---5---5--
B:-----7---7-6------7---7--------7---7--------7---7----
G:------------------------8------------7---------------
D:-----------------------------------------------------
A:-----------------------------------------------------
E:-----------------------------------------------------
[ Tab from: http://www.guitartabs.cc/tabs/s/sum_41/pain_for_pleasure_tab_ver_6.html ]
2nd guitar 2(x)
e:-----------------------------------------------------
B:-11-9----9--------11-9----9-------11-9----9----------
G:------11---11-10-------11---11-8-------11---11-7-----
D:-----------------------------------------------------
A:-----------------------------------------------------
E:-----------------------------------------------------

e:-----------------
B:-11-9----9----9--
G:------11---11----
D:-----------------
A:-----------------
E:-----------------

verse both guitars "the seas have parted..."
e:----------------------------------------------------------
B:----------------------------------------------------------
G:-8-xxxxxxx-8-6-xxxxxxx-6-4-xxxxxxx-4-xxxxxxx-4-3-xxxxxxx--
D:-8-xxxxxxx-8-6-xxxxxxx-6-4-xxxxxxx-4-xxxxxxx-4-3-xxxxxxx--
A:-6-xxxxxxx-6-4-xxxxxxx-4-2-xxxxxxx-2-xxxxxxx-2-1-xxxxxxx--
E:----------------------------------------------------------

2nd guitar while 1st guitar keeps playing verse
"its midnight now you must escape somehow..."
e:------------------------------------------------------
B:------------------------------------------------------
G:-8--8-10---10--10--11---11--11---16-------------------
D:-x--x-x----x---x---x----x---x----x--------------------
A:-6--6-8----8---8---9----9---9----14-------------------
E:------------------------------------------------------

both guitars "pain for pleasure hes the hunter your the game..."
e:-----------------------------------
B:-----------------------------------
G:-8-8-6-8--33333-4444-666-----------
D:-8-8-6-8--33333-4444-666-----------
A:-6-6-4-6--11111-2222-444-----------
E:-----------------------------------

"pain for pleasure, satan is his naaaame..."
e:-------------------------------------------
B:-------------------------------------------
G:-8-8-6-8--33333-4444-666-444-666-444-6666--
D:-8-8-6-8--33333-4444-666-444-666-444-6666--
A:-6-6-4-6--11111-2222-444-222-444-222-4444--
E:-------------------------------------------

ending "look out..."
e:---------------------
B:---------------------
G:-8-6-8---------------
D:-8-6-8---------------
A:-6-4-6---------------
E:---------------------

any questions or comments: bmxfreak48@hotmail.com




Comments