Sum 41 - Pain For Pleasure Chords & Tabs

 

Pain For Pleasure Chords & Tabs

Sum 41 Chords & Tabs

Version: 5 Type: Tab 0 ratings
1 star 2 stars 3 stars 4 stars 5 stars
comments

Pain For Pleasure Tab

Sum 41- All Killer No Filler- Pain for Pleasure

Tabbed by ***Jameson S.***

Bass Guitar Intro:
e|--------------------------------------------------|
B|--------------------------------------------------|
G|--------------------------------------------------|
D|--------------------------------------------------|
A|-6--6-4--4-2--2-1-4----6--6-4--4-2--2-1-4---------|
E|--------------------------------------------------|

e|--------------------------------------------------|
B|--------------------------------------------------|
G|--------------------------------------------------|
D|--------------------------------------------------|
A|-6-6-4--4-2--2-1-4-----6--6-8--8-9--9-11----------|
E|--------------------------------------------------|


Intro:
e|--------------------------------------------------|
B|--------------------------------------------------|
G|--------------------------------------------------|
D|--------------------------------------------------|
A|-6-6--9-7-6-------9-7-6--------9-7-6--------9-7-6-|
E|-------------9-9----------7-7----------6-6--------|
[ Tab from: http://www.guitartabs.cc/tabs/s/sum_41/pain_for_pleasure_tab_ver_5.html ]
Guitar 1
e|--------------------------------------------------|
B|--------------------------------------------------|
G|--------------------------------------------------|
D|--------------------------------------------------|
A|-6-6--9-7-6-------9-7-6--------9-7-6--------------|
E|-------------9-9----------7-7---------------------|

Guitar 2
e|--------------------------------------------------|
B|--------------------------------------------------|
G|--------------------------------------------------|
D|------8-6---------8-6----------8-6----------------|
A|-9-9------9--8-8------9---6-6------9--------------|
E|--------------------------------------------------|

e|-6-4-2-4-2-1---6-4-2-4-2-----6-4-2-4-2------------|
B|-------------------------4-------------3----------|
G|--------------------------------------------------|
D|--------------------------------------------------|
A|--------------------------------------------------|
E|--------------------------------------------------|

e|-6-4-2-4-1\\\\2---6-4-2-4-2-1----6-4-2-4-2-----------|
B|----------------------------------------4---------|
G|--------------------------------------------------|
D|--------------------------------------------------|
A|--------------------------------------------------|
E|--------------------------------------------------|

e|-6-4-2-4-----6-4-2-4-1\\\\2--------------------------|
B|---------3----------------------------------------|
G|--------------------------------------------------|
D|--------------------------------------------------|
A|--------------------------------------------------|
E|--------------------------------------------------|

The rest of the song is mostly singing and has drums in the background. Enjoy!
Comments