Sum 41 - Pain For Pleasure Chords & Tabs

 

Pain For Pleasure Chords & Tabs

Sum 41 Chords & Tabs

Version: 14 Type: Tab 0 ratings
1 star 2 stars 3 stars 4 stars 5 stars
comments

Pain For Pleasure Tab

-----------------------------------------------------------------------------
			     Pain For Pleasure - Sum 41
-----------------------------------------------------------------------------
Tabbed by: Sam B


Tuning:Normal-EADGBE

Gtr 1
e|--------------------------------------------------------------------------|
B|--------------------------------------------------------------------------|
G|--------------------------------------------------------------------------|
D|------------------------------------Just-Play-This-Part-Loads-------------|
A|--6--6666--6666--66666666-------------------------------------------------|
E|--------------------------------------------------------------------------|
PM  .  ....  ....  ........

Gtr 2 (comes in at 0:27)
e|--------------------------------------------------------------------------|
B|--------------------------------------------------------------------------|
G|--8--10--11---13-13-13-13-------------------------------------------------|
D|--x---x---x----x--x--x--x-------------------------------------------------|
A|--6---8---9---11-11-11-11-------------------------------------------------|
E|--------------------------------------------------------------------------|

Gtr 1
e|--------------------------------------------------------------------------|
B|--------------------------------------------------------------------------|
G|---88------------66------------44------------33---------------------------|
D|---88--3/4-3-1---66--3/4-3-1---44--3/4-3-1---33--3/4-3-1------------------|
A|---66------------44------------22------------11---------------------------|
E|--------------------------------------------------------------------------|
  
Gtr 2 (Played Over Top Of Guitar 1)
e|--------------------------------------------------------------------------|
B|--------------------------------------------------------------------------|
G|---88--2/3-1-----66--2/3-1-----44--2/3-1-----33--2/3-1-----3-1------------|
D|---88--------4---66--------4---44--------4---33--------4-------4-3--------|
A|---66------------44------------22------------11---------------------------|
E|--------------------------------------------------------------------------|
[ Tab from: http://www.guitartabs.cc/tabs/s/sum_41/pain_for_pleasure_tab_ver_14.html ]
Solo Backing And Verse Riff (Gtr 1)
e|--------------------------------------------------------------------------|
B|--------------------------------------------------------------------------|
G|--------------------------------------------------------------------------|
D|---8-----------------------8-6------------------------6-------------------|
A|---6--6-6666-6666-66666666-6-4--4-4444-4444-44444444--4-------------------|
E|--------------------------------------------------------------------------|
  PM    . .... .... ........ . .  . .... .... ........  .
e|--------------------------------------------------------------------------|
B|--------------------------------------------------------------------------|
G|--------------------------------------------------------------------------|
D|---4-----------------------4-3------------------------3---x2--(x4-in-total|
A|---2--2-2222-2222-22222222-2-1--1-1111-1111-11111111--1-------------------|
E|--------------------------------------------------------------------------|
  PM .  . .... .... ........ . .  . .... .... ........

Solo (gtr 2)
e|--------------------------------------------------------------------------|
B|-11-9----9----------11-9----9---------11-9----9----------11-9----9--------|
G|------11---11-10~~-------11---11-8~~-------11---11--7~~-------11---10-11~-|
D|--------------------------------------------------------------------------|
A|--------------------------------------------------------------------------|
E|--------------------------------------------------------------------------|

Solo (Gtr 3)
e|--------------------------------------------------------------------------|
B|--------------------------------------------------------------------------|
G|-11-10--10---------11-10--10--------11-10---10--------11-10---10----------|
D|------13---13-11~~------13---13-9~~-------10---13-8~~-------13---12-13~~--|
A|--------------------------------------------------------------------------|
E|--------------------------------------------------------------------------|

Then Both Guitars Play Verse Riff Twice
And.. On The 3rd and 4th Times Guitar 2 Plays This Riff Over The Top Of Verse
Riff
e|--------------------------------------------------------------------------|
B|--------------------------------------------------------------------------|
G|-----8-----------10-----------11-----------15-----------------------------|
D|-----x-let-ring---x-let-ring---x-let-ring---x-let-ring----x2--------------|
A|-----6------------8------------9-----------13-----------------------------|
E|--------------------------------------------------------------------------|


e|--------------------------------------------------------------------------|
B|--------------------------------------------------------------------------|
G|-----8--------------6-8---8-----------------------------------------------|
D|-----8-let-ring-----6-8---8-let-ring---------4----6--------x2-------------|
A|-----6--------------4-6---6-----------------2-2--4-4----------------------|
E|--------------------------------------------------------------------------|

e|--------------------------------------------------------------------------|
B|--------------------------------------------------------------------------|
G|-------------------------------------------8------------------------------|
D|------4----6----4----6----4----6-----------8--let-ring--------------------|
A|-----2-2--4-4--2-2--4-4--2-2--4-4----------6------------------------------|
E|--------------------------------------------------------------------------|

e|--------------------------------------------------------------------------|
B|--------------------------------------------------------------------------|
G|-----------8--6--8///-----------------------------------------------------|
D|-----------8--6--8///-----------------------------------------------------|
A|-----------6--4--6///-----------------------------------------------------|
E|--------------------------------------------------------------------------|
Comments