Sum 41 - Pain For Pleasure Chords & Tabs

 

Pain For Pleasure Chords & Tabs

Sum 41 Chords & Tabs

Version: 1 Type: Tab 1 rating
1 star 2 stars 3 stars 4 stars 5 stars
comments

Pain For Pleasure Tab

   
Song: Pain for Pleasure
Band: Sum 41
Album: All Killer, No Filler
Tabber: Barry French (Bazdurst)

Intro

E---------------------------------------------------------------------------
B---------------------------------------------------------------------------
G--8-888-888-888888-8-888-888-888888----------------------------------------
D--8-888-888-888888-8-888-888-888888----------------------------------------
A--6-666-666-666666-6-666-666-666666----------------------------------------
E---------------------------------------------------------------------------

Riff 1

E--------------------------------------------------------------------------
B--------------------------------------------------------------------------
G--8-8-----------6-6-----------4-4-----------3-3---------------------------
D--8-8--3/4-3-1--6-6--3/4-3-1--4-4--3/4-3-1--3-3--3/4-3-1----6-4-2---------   
A--6-6-----------4-4-----------2-2-----------1-1-------------------4-------
E--------------------------------------------------------------------------    

Riff 2
[ Tab from: http://www.guitartabs.cc/tabs/s/sum_41/pain_for_pleasure_tab.html ]
e--6-4---4-------6-4---4-------6-4---4-------6-4---4-------6-4---4--------
B------7---7-6-------7---7-4-------7---7-6-------7---7-4-------7---7-6----
G-------------------------------------------------------------------------  x2
D-------------------------------------------------------------------------        
A-------------------------------------------------------------------------   
E-------------------------------------------------------------------------  

Riff 3

E--------------------------------------------------------------------------
B--------------------------------------------------------------------------
G--8-888-888-888-888888---6-666-666-666-666666---4-444-444-444444--333333--
D--8-888-888-888-888888---6-666-666-666-666666---4-444-444-444444--333333--       
A--6-666-666-666-666666---4-444-444-444-444444---2-222-222-222222--111111-- 
E--------------------------------------------------------------------------
   
pm.....................................................................

Outro

E------------------------------
B------------------------------
G-8-11-8-8-4-4-4-6-6-6-8-8-6-8-
D-8-11-8-8-4-4-4-6-6-6-8-8-6-8-
A-6-9--6-6-2-2-2-4-4-4-6-6-4-6-
E------------------------------                        
Comments