Sum 41 - Pain For Pleasure Chords & Tabs

 

Pain For Pleasure Chords & Tabs

Sum 41 Chords & Tabs

Version: 1 Type: Bass Tab 0 ratings
1 star 2 stars 3 stars 4 stars 5 stars
comments

Pain For Pleasure Bass Tab

Sum 41
"Pain For Pleasure"
tabbed by:jhurley12

Bass starts at 0:09

INTRO
G------------------------------|
D------------------------------|
A--6---6-4---4-2---2-1---1-4---| (x4)
E------------------------------|

G-------------------------|
D-------------------------|
A--6-6---4-4---2-2---1-1--| 
E-------------------------|

G------|
D------|
A--1-4-|
E------|

G-------------------------|
D-------------------------|
A--6-6---4-4---2-2---1-1--| 
E-------------------------|

G---------------------------------------|
D---------------------------------------|
A--66666666-44444444-22222222-11111111--| (x2)
E---------------------------------------|
[ Tab from: http://www.guitartabs.cc/tabs/s/sum_41/pain_for_pleasure_btab.html ]
VERSE ("The seas have parted...")
G---------------------------------------|
D---------------------------------------|
A--66666666-44444444-22222222-11111111--| (x4)
E---------------------------------------|

CHORUS ("Pain for pleasure...")
G-----------------------------------|
D-----------------------------------|
A--6-6-6-6--9--6---6-6-6-6--222-444-|
E-----------------------------------|

G---------------------------|
D---------------------------|
A--6-6-6-6--9--6---6-6-6-6--|
E---------------------------|

G-----------|
D-----------|
A--222-444--| (x3)
E-----------|

G---------------------------|
D---------------------------|
A--6----------------66-4-6/-|
E---------------------------|


That's all!  its fairly easy!
Questions, comments, requests...E-Mail me at
jjs_ELEMENT@hotmail.com


 
 
Comments