Sum 41 - Over My Head Chords & Tabs

 

Over My Head Chords & Tabs

Sum 41 Chords & Tabs

Version: 8 Type: Tab 0 ratings
1 star 2 stars 3 stars 4 stars 5 stars
comments

Over My Head Tab

   
palm mute = pm.....
harmonics = ()

  Intro
  Guitar 1
e|----------------------------------
B|----------------------------------
G|----------------------------------  x2
D|----5---9----9--------7-------4---
A|7-7---7---10---10-9-9---9-5-5---5-
E|----------------------------------
pm. .   .   ..   .. . .   . . .   .

  Guitar 2
e|(7)----                -(7)------
B|--(7)-- after 2nd time ---(7)----
G|----(7)                -----(7)--
D|-------                ------4---
A|-------                --5-5---5-
E|-------                ----------

  Verse 1
 Guitar 1
e|----------------------------------
B|----------------------------------
G|----------------------------------  x4
D|----5---9----9--------7-------4---
A|7-7---7---10---10-9-9---9-5-5---5-
E|----------------------------------
pm. .   .   ..   .. . .   . . .   .

e|----------------------------------------------------------------
B|----------------------------------------------------------------
G|----------------------------------------------------------------
D|----2-----2---2-----4-----4---4-----5---9---9-------5---9---9---
A|3-3---3-3---3---5-5---5-5---5---7-7---7---7---7-7-7---7---7---7-
E|----------------------------------------------------------------
pm. .   . .   .   . .   . .   .   . .   .   .   . . .   .   .   .

e|------------------------------------------------------------(7)----
B|--------------------------------------------------------------(7)--
G|----------------------------------------------------------------(7)
D|----2-----2---2-----4-----4---4-5-5-5-5-5-5-5-5-5-5-5-5------------
A|3-3---3-3---3---5-5---5-5---5---7-7-7-7-7-7-7-7-7-7-7-7------------
E|-------------------------------------------------------------------
pm. .   . .   .   . .   . .   .   . . . . . .

  Chorus
  Guitar 1&2
e|----------------------------------------------------------------
B|----------------------------------------------------------------
G|----------------5-5-5-5-5-5-5-5-----------------7-7-7-7-7-7-7-7-  x2
D|9-9-9-9-9-9-9-9-5-5-5-5-5-5-5-5-5-5-5-5-5-5-5-5-7-7-7-7-7-7-7-7-
A|7-7-7-7-7-7-7-7-3-3-3-3-3-3-3-3-5-5-5-5-5-5-5-5-5-5-5-5-5-5-5-5-
E|0-0-0-0-0-0-0-0-----------------3-3-3-3-3-3-3-3-----------------

e|--------------------------------
B|--------------------------------
G|--------5---5-5---------7-7-7-7-  x2
D|9---9-9-5---5-5-5---5-5-7-7-7-7-
A|7---7-7-3---3-3-5---5-5-5-5-5-5-
E|0---0-0---------3---3-3---------

  Verse 2
  Guitar 1
e|----------------------------------
B|----------------------------------
G|----------------------------------  x4
D|----5---9----9--------7-------4---
A|7-7---7---10---10-9-9---9-5-5---5-
E|----------------------------------
pm. .   .   ..   .. . .   . . .   .

e|----------------------------------------------------------------
B|----------------------------------------------------------------
G|----------------------------------------------------------------
D|----2-----2---2-----4-----4---4-----5---9---9-------5---9---9---
A|3-3---3-3---3---5-5---5-5---5---7-7---7---7---7-7-7---7---7---7-
E|----------------------------------------------------------------
pm. .   . .   .   . .   . .   .   . .   .   .   . . .   .   .   .

e|------------------------------------------------------------(7)----
B|--------------------------------------------------------------(7)--
G|----------------------------------------------------------------(7)
D|----2-----2---2-----4-----4---4-5-5-5-5-5-5-5-5-5-5-5-5------------
A|3-3---3-3---3---5-5---5-5---5---7-7-7-7-7-7-7-7-7-7-7-7------------
E|-------------------------------------------------------------------
pm. .   . .   .   . .   . .   .   . . . . . .
[ Tab from: http://www.guitartabs.cc/tabs/s/sum_41/over_my_head_tab_ver_8.html ]
  Chorus
  Guitar 1&2
e|----------------------------------------------------------------
B|----------------------------------------------------------------
G|----------------5-5-5-5-5-5-5-5-----------------7-7-7-7-7-7-7-7-  x2
D|9-9-9-9-9-9-9-9-5-5-5-5-5-5-5-5-5-5-5-5-5-5-5-5-7-7-7-7-7-7-7-7-
A|7-7-7-7-7-7-7-7-3-3-3-3-3-3-3-3-5-5-5-5-5-5-5-5-5-5-5-5-5-5-5-5-
E|0-0-0-0-0-0-0-0-----------------3-3-3-3-3-3-3-3-----------------

  Bridge 1
  Guitar 1&2
e|--------------------------------------------------------
B|--------------------------------------------------------
G|--------------5-5---5-5-5-5---------------7-7---7-7-7-7-
D|2---2---2-2-2-5-5---5-5-5-5-5---5---5-5-5-7-7---7-7-7-7-
A|2---2---2-2-2-3-3---3-3-3-3-5---5---5-5-5-5-5---5-5-5-5-
E|0---0---0-0-0---------------3---3---3-3-3-5-5---5-5-5-5-

e|--------------------------------------------------------
B|--------------------------------------------------------
G|--------------5-5---5-5-5-5-----------------------------
D|2---2---2-2-2-5-5---5-5-5-5-5---5---5-5-5-5-5---x-x-x-x-
A|2---2---2-2-2-3-3---3-3-3-3-5---5---5-5-5-5-5---x-x-x-x-
E|0---0---0-0-0---------------3---3---3-3-3-5-5---x-x-x-x-

e|--------------------------------------------------------
B|--------------------------------------------------------
G|--------------5-5---5-5-5-5---------------7-7---7-7-7-7-
D|2---2---2-2-2-5-5---5-5-5-5-5---5---5-5-5-7-7---7-7-7-7-
A|2---2---2-2-2-3-3---3-3-3-3-5---5---5-5-5-5-5---5-5-5-5-
E|0---0---0-0-0---------------3---3---3-3-3-5-5---5-5-5-5-

e|--------------------------------------------------
B|--------------------------------------------------
G|--------------5-5---5-5-5-5-----------------------
D|2---2---2-2-2-5-5---5-5-5-5-x-x-5-5-x-x-5-5-x-x-5-
A|2---2---2-2-2-3-3---3-3-3-3-x-x-5-5-x-x-4-4-x-x-4-
E|0---0---0-0-0---------------x-x-3-3-x-x-2-2-x-x-2-

  Bridge 2
  Guitar 1
e|----------------------------------------------------------------
B|----------------------------------------------------------------
G|----------------------------------------------------------------  x4
D|2-2-2-2-2-2-2-2-5-5-5-5-5-5-5-5-5-5-5-5-5-5-5-5-7-7-7-7-7-7-7-7-
A|2-2-2-2-2-2-2-2-4-4-4-4-4-4-4-4-5-5-5-5-5-5-5-5-7-7-7-7-7-7-7-7-
E|0-0-0-0-0-0-0-0-2-2-2-2-2-2-2-2-3-3-3-3-3-3-3-3-5-5-5-5-5-5-5-5-

  Guitar 2
e|----------------------------------------------------------
B|----------------------------------------------------------
G|12--12-12-9---9-9-14--14-14-12--12-12-16--16-16-12--12-12-
D|----------------------------------------------------------
A|10--10-10-7---7-7-12--12-12-10--10-10-14--14-14-10--10-10-
E|----------------------------------------------------------

e|------------------------
B|------------------------
G|11-11-12-12-14-14-16-16-
D|------------------------
A|-9--9-10-10-12-12-14-14-
E|------------------------

e|----------------------------------------------------------
B|----------------------------------------------------------
G|12--12-12-9---9-9-14--14-14-12--12-12-16--16-16-12--12-12-
D|----------------------------------------------------------
A|10--10-10-7---7-7-12--12-12-10--10-10-14--14-14-10--10-10-
E|----------------------------------------------------------

e|--------------------------------------------
B|--------------------------------------------
G|11-11-12-12-14-14-16-16-16--16--16-16-16-16-
D|--------------------------------------------
A|-9--9-10-10-12-12-14-14-14--14--14-14-14-14-
E|--------------------------------------------

  Chorus
  Guitar 1&2
e|----------------------------------------------------------------
B|----------------------------------------------------------------
G|----------------5-5-5-5-5-5-5-5-----------------7-7-7-7-7-7-7-7-  x2
D|9-9-9-9-9-9-9-9-5-5-5-5-5-5-5-5-5-5-5-5-5-5-5-5-7-7-7-7-7-7-7-7-
A|7-7-7-7-7-7-7-7-3-3-3-3-3-3-3-3-5-5-5-5-5-5-5-5-5-5-5-5-5-5-5-5-
E|0-0-0-0-0-0-0-0-----------------3-3-3-3-3-3-3-3-----------------

e|--------------------------------
B|--------------------------------
G|--------5---5-5---------7-7-7-7-  x4
D|9---9-9-5---5-5-5---5-5-7-7-7-7-
A|7---7-7-3---3-3-5---5-5-5-5-5-5-
E|0---0-0---------3---3-3---------

I think thats pretty much right, I've listened to it alot so....
Any questions e-mail me at drew_0069@hotmail.com
Enjoy!
Comments