Sum 41 - Over My Head Chords & Tabs

 

Over My Head Chords & Tabs

Sum 41 Chords & Tabs

Version: 7 Type: Tab 0 ratings
1 star 2 stars 3 stars 4 stars 5 stars
comments

Over My Head Tab

|----------------------------------------| . = Palm Mute
|-Sum-41--Over-My-Head-(Better-Off-Dead)-|
|----------------------------------------| Standard Tuning

The Strumming may be wrong in some places--if so, just play it to how you like it

Intro
|-------------------------------------
|-------------------------------------
|------0------------------------------
|----------9---9---------5--------4---
|--7-7---7---7---7---7-7---7--5-5---5-
|------------------------------------- x2
   . .   .   .   .   . .   .  . .   .

|----------------------
|----------------------
|------------7777------
|--2222-5555-7777-5555-
|--2222-5555-5555-5555-
|--0000-3333------3333- x2

Verse
|-------------------------------------
|-------------------------------------
|------0------------------------------
|----------9---9---------5--------4---
|--7-7---7---7---7---7-7---7--5-5---5-
|------------------------------------- x4 
   . .   .   .   .   . .   .  . .   .

|----------------------------------------------------
|----------------------------------------------------
|----------------------------------------0-----------
|------2-----2---2------4-----4---4----------9---9---
|--3-3---3-3---3----5-5---5-5---5----7-7---7---7---7-
|----------------------------------------------------
   . .   . .   .    . .   . .   .    . .   .   .   .

|------------------------------------------------
|------------------------------------------------
|------------------------------------99999999999-
|------2-----2---2------4-----4---4--99999999999- (i dont know what they play here, but i think
|--3-3---3-3---3----5-5---5-5---5----77777777777-  a good pick slide works just fine)
|------------------------------------77777777777-  
   . .   . .   .    . .   . .   .    ........

Chorus
|---------------------------------------------------------------------
|-------------------------------------5555555-------------------------
|----------5555555---------7777777----4444444-5555555---------7777777-
|--2222222-5555555-5555555-7777777----2222222-5555555-5555555-7777777-
|--2222222-3333333-5555555-5555555------------3333333-5555555-5555555-
|--0000000---------3333333----------------------------3333333---------
[ Tab from: http://www.guitartabs.cc/tabs/s/sum_41/over_my_head_tab_ver_7.html ]
Guitar 1              Guitar 2
|----------------     |--3--5-5--3-3--2-2----3--5-5--3-3--2-2-
|----------------     |---------------------------------------
|----55----77777-     |---------------------------------------
|--2-55-55-77777-     |---------------------------------------
|--2-33-55-55555-     |---------------------------------------
|--0----33------- x2  |--------------------------------------- x2

Verse 2 is the same as verse 1

Then play the chorus

Interlude
|----------------------------------------------------
|----------------------------------------------------
|--------55555--------------------55555--------------
|--22222-55555-55555-44444--22222-55555-5555555-xxxx-
|--22222-33333-55555-55555--22222-33333-5555555-xxxx-
|--00000-------33333-22222--00000-------3333333-xxxx-

|----------------------------------------------------------
|----------------------------------------------------------
|--------55555--------------------55555--------------------
|--22222-55555-55555-44444--22222-55555-xxxx-55-xx-55-xxxx-
|--22222-33333-55555-55555--22222-33333-xxxx-55-xx-55-xxxx-
|--00000-------33333-22222--00000-------xxxx-33-xx-33-xxxx-

Solo / Interlude - Guitar 1
|--3-3-3-3--0-0-0-0--5-5-5-5--3-3-3-3--7-7-7-7--3-3-3-3--2-2--3-3--5-5--7-7-
|---------------------------------------------------------------------------
|---------------------------------------------------------------------------
|---------------------------------------------------------------------------
|---------------------------------------------------------------------------
|--------------------------------------------------------------------------- x4

Guitar 2 <-- Not too sure about this part - it sounds right, but if you dont
think it is, you can try work from it.
|--------------------------------------
|--------------------------------------
|--------------------------------------
|--22222222-44444444-55555555-44444444-
|--22222222-55555555-55555555-55555555-
|--00000000-22222222-33333333-22222222- x4

Chorus
|---------------------------------------------------------------------
|-------------------------------------5555555-------------------------
|----------5555555---------7777777----4444444-5555555---------7777777-
|--2222222-5555555-5555555-7777777----2222222-5555555-5555555-7777777-
|--2222222-3333333-5555555-5555555------------3333333-5555555-5555555-
|--0000000---------3333333----------------------------3333333---------

Guitar 1              Guitar 2
|----------------     |--3--5-5--3-3--2-2----3--5-5--3-3--2-2-
|----------------     |---------------------------------------
|----55----77777-     |---------------------------------------
|--2-55-55-77777-     |---------------------------------------
|--2-33-55-55555-     |---------------------------------------
|--0----33------- x4  |--------------------------------------- x4


=-=-=-=-=-=-=-=-=-=-=-=-=-=-=-=-=-=-=-=-=-=-=-=-=-=-=-=-=-=-=--=-=-=-=-=-=-=-=-=
Comments