Sum 41 - Over My Head Chords & Tabs

 

Over My Head Chords & Tabs

Sum 41 Chords & Tabs

Version: 5 Type: Tab 0 ratings
1 star 2 stars 3 stars 4 stars 5 stars
comments

Over My Head Tab

   
Dropped-D Tuning
Palm-mute: *

Hope this helps.

Intro/Verse (Gtr.1 dist.)
e|---------------------------------------------------------------------------|
B|---------------------------------------------------------------------------|
G|-----0---4---4-------2-----------------------------------------------------|
D|-2-2---2---5---5-4-4---4-0-0-4-0-------------------------------------------|
A|---------------------------------------------------------------------------|
E|---------------------------------------------------------------------------|
   * *   *   *   * * *   * * *   *
Intro (Gtr.2 dist.)
e|-19------------------------------------------------------------------------|
B|---------------------------------------------------------------------------|
G|----16-19--------------------------------9\--------------------------------|
D|--------------------2-5-4-0--------------x---------------------------------|
A|--------------------2-5-4-0--------------7\--------------------------------|
E|--------------------2-5-4-0------------------------------------------------|
(after 2x of Gtr.1)

Pre-chorus (Gtr.1 dist.)
e|---------------------------------------------------------------------------|
B|---------------------------------------------------------------------------|
G|---------------------------------------0---4---4--------0---4---4----------|
D|-----2-----2---2------4-----4---4--2-2---2---5---5--2-2---2---5---5--------|
A|-3-3---3-3---3----5-5---5-5---5--------------------------------------------|
E|---------------------------------------------------------------------------|
   * *   * *   *    * *   * *   *    * *   *   *   *  * *   *   *   *  

e|---------------------------------------------------------------------------|
B|---------------------------------------------------------------------------|
G|---------------------------------------------------------------------------|
D|-222222222-----------------------------------------------------------------|
A|-222222222-----------------------------------------------------------------|
E|-222222222-----------------------------------------------------------------|
   *******

Pre-chorus (Gtr.2 dist.)
e|-19-19-19------------------------------------------------------------------|
B|--0--0--0------------------------------------------------------------------|
G|---------------------------------------------------------------------------|
D|---------------------------------------------------------------------------|
A|---------------------------------------------------------------------------|
E|---------------------------------------------------------------------------|
(Right before chorus)
[ Tab from: http://www.guitartabs.cc/tabs/s/sum_41/over_my_head_tab_ver_5.html ]
Chorus (Gtr.1 & 2)
e|---------------------------------------------------------------------------|
B|---------------------------------------------------------------------------|
G|---5---7-9-5---------------------------------------------------------------|
D|-2-5-5-7-9-5-5-5-----------------------------------------------------------|
A|-2-3-5-5-7-3-5-5-----------------------------------------------------------|
E|-2---5-------5-4-----------------------------------------------------------|

Interlude (Gtr.1)
e|---------------------------------------------------------------------------|
B|---------------------------------------------------------------------------|
G|-12-x-14-x-12-x-11----------------9\---------------------------------------|
D|--x-x--x-x--x-x-x-----------------x----------------------------------------|
A|-10-x-12-x-10-x-9-----------------7\---------------------------------------|
E|---------------------------------------------------------------------------|

Interlude (Gtr.2)
e|---------------------------------------------------------------------------|
B|---------------------------------------------------------------------------|
G|-----5-x-----7-------------------------------------------------------------|
D|-2-x 5-x-5-x-7-------------------------------------------------------------|
A|-2-x-3-x-5-x-5-------------------------------------------------------------|
E|-2-x-----5-x---------------------------------------------------------------|

Bridge
e|---------------------------------------------------------------------------|
B|---------------------------------------------------------------------------|
G|---5-------5---------------------------------------------------------------|
D|-2-5-5-5-2-5-5-x-x-x-5-----------------------------------------------------|
A|-2-3-5-5-2-3-5-x-x-x-5-----------------------------------------------------|
E|-2---5-4-2---5-x-x-x-5-----------------------------------------------------|

Interlude (Gtr.1)
e|---------------------------------------------------------------------------|
B|---------------------------------------------------------------------------|
G|-12-11-14-12-16-12-11-12-14-16---------------------------------------------|
D|--x-x---x--x--x--x-x---x--x--x---------------------------------------------|
A|-10-9--12-10-14-10-9--10-12-14---------------------------------------------|
E|---------------------------------------------------------------------------|

e|---------------------------------------------------------------------------|
B|---------------------------------------------------------------------------|
G|---------------------------------------------------------------------------|
D|-2-5-4-7-------------------------------------------------------------------|
A|-2-5-4-7-------------------------------------------------------------------|
E|-2-5-4-7-------------------------------------------------------------------|

Outro is the first interlude, and that's about it. Peace.
Comments