Sum 41 - Over My Head Chords & Tabs

 

Over My Head Chords & Tabs

Sum 41 Chords & Tabs

Version: 4 Type: Tab 0 ratings
1 star 2 stars 3 stars 4 stars 5 stars
comments

Over My Head Tab

Artist : Sum 41
Album : Does This Look Infected
Track : Over My Head ( Better Off Dead )
Tabbed By Mark Brown

Intro/Verse
Gtr 1 (dist)  
    P.M------|        P.M--|    P.M--|
e|------------------------------------------------------|
B|------------------------------------------------------|
G|------------------------------------------------------|
D|-------------9--9-------------------------------------|
A|--7-7-7--10--------10-10--12---9--9--10---------------|
D|------------------------------------------------------|
   
Gtr 2 (dist)
  harm..............
e|-------<7>--------------------------------------------|
B|-----------<7>----------------------------------------|
G|---------------<7>------------------------------------|
D|------------------------------------------------------|
A|------------------------------------------------------|
D|------------------------------------------------------|

Gtr 1 & 2
e|------------------------------------------------------|
B|------------------------------------------------------|
G|------------------------------------------------------|
D|------------------------------------------------------|
A|--2--2--2--2--5--5--5--5--0--0--0--0--5--5--5--5------|
D|--2--2--2--2--5--5--5--5--0--0--0--0--5--5--5--5------|


   P.M------|        P.M--|    P.M--|
e|------------------------------------------------------|
B|------------------------------------------------------|
G|------------------------------------------------------|
D|-------------9--9-------------------------------------|
A|--7-7-7--10--------10-10--12---9--9--10---------------|
D|------------------------------------------------------|

Interlude
Gtr 1
   P.M-|    P.M      P.M-|   P.M      P.M---|   P.M
e|---------------------------------------------------------|
B|---------------------------------------------------------|
G|---------------------------------------------------------|
D|--------5-----5--5--------7----7--7----------9-----9--9--|
A|--7--7-----7--------9--9----9--------10--10----10--------|
D|---------------------------------------------------------|

e|---------------------------14-P-12---------------|
B|------------------------------------15-----------|
G|-------------------------------------------------|
D|--9---9---9---9---9------------------------------|
A|-10--10--10--10--10------------------------------|
D|-------------------------------------------------|

Chorus
Gtrs 1&2
e|------------------------------------------------------------------------|
B|------------------------------------------------------------------------|
G|------------------------------------------------------------------------|
D|-9--9--9--9--9--9--5--5--5--5--5--5--------------------7--7--7--7--7--7-|
A|-7--7--7--7--7--7--3--3--3--3--3--3--5--5--5--5--5--5--5--5--5--5--5--5-|
D|-------------------------------------5--5--5--5--5--5-------------------|

Gtr 1
e|------------------------------------------------------|
B|------------------------------------------------------|
G|--12-----14--14-----12--12----11-11-11----------------|
D|---X--X---X---X--X---X---X--X--X--X--X----------------|
A|--10--X--12--12--X--10--10--X--9--9--9----------------|
D|------------------------------------------------------|
[ Tab from: http://www.guitartabs.cc/tabs/s/sum_41/over_my_head_tab_ver_4.html ]
Gtr 2
e|------------------------------------------------------|
B|------------------------------------------------------|
G|------------------------------------------------------|
D|----------5--5-X-------------7--7--7------------------|
A|---2--X---3--3-X---5--5--X---5--5--5------------------|
D|---2--X------------5--5--X----------------------------|

   P.M------|        P.M--|    P.M--|
e|------------------------------------------------------|
B|------------------------------------------------------|
G|------------------------------------------------------|
D|-------------9--9-------------------------------------|
A|--7-7-7--10--------10-10--12---9--9--10---------------|
D|------------------------------------------------------|


Interlude
Gtr 1
   P.M-|    P.M      P.M-|   P.M      P.M---|   P.M
e|---------------------------------------------------------|
B|---------------------------------------------------------|
G|---------------------------------------------------------|
D|--------5-----5--5--------7----7--7----------9-----9--9--|
A|--7--7-----7--------9--9----9--------10--10----10--------|
D|---------------------------------------------------------|

e|---------------------------14-P-12---------------|
B|------------------------------------15-----------|
G|-------------------------------------------------|
D|--9---9---9---9---9------------------------------|
A|-10--10--10--10--10------------------------------|
D|-------------------------------------------------|

Chorus
Gtrs 1&2
e|------------------------------------------------------------------------|
B|------------------------------------------------------------------------|
G|------------------------------------------------------------------------|
D|-9--9--9--9--9--9--5--5--5--5--5--5--------------------7--7--7--7--7--7-|
A|-7--7--7--7--7--7--3--3--3--3--3--3--5--5--5--5--5--5--5--5--5--5--5--5-|
D|-------------------------------------5--5--5--5--5--5-------------------|


Interlude
Gtrs 1&2
e|------------------------------------------------------|
B|------------------------------------------------------|
G|------------------------------------------------------|
D|--------------5--5--5--5------------------------------|
A|--2--2--2--2--3--3--3--3--5--5--5--5--5--5--5--5------|
D|--2--2--2--2--------------5--5--5--5--4--4--4--4------|

e|------------------------------------------------------|
B|------------------------------------------------------|
G|------------------------------------------------------|
D|------------------------------------------------------|
A|--5--5---------5--5-----5-----------------------------|
D|--5--5---------5--5-----5-----------------------------|

e|------------------------------------------------------|
B|------------------------------------------------------|
G|--12-12-12-12-11-11-11-11--14-14-14-14-12-12-12-12----|
D|---X--X--X--X--X--X--X--X---X--X--X--X--X--X--X--X----|
A|--10-10-10-10--9--9--9--9--12-12-12-12-10-10-10-10----|
D|------------------------------------------------------|

e|--------------------------------------------------------|
B|--------------------------------------------------------|
G|-16-16-16-16-12-12-12-12-11-11--12--12--14--14--16--16--|
D|--X--X--X--X--X--X--X--X--X--X---X---X---X---X---X---X--|
A|-14-14-14-14-10-10-10-10--9--9--10--10--12--12--14--14--|
D|--------------------------------------------------------|

Chorus
Gtrs 1&2
e|------------------------------------------------------------------------|
B|------------------------------------------------------------------------|
G|------------------------------------------------------------------------|
D|-9--9--9--9--9--9--5--5--5--5--5--5--------------------7--7--7--7--7--7-|
A|-7--7--7--7--7--7--3--3--3--3--3--3--5--5--5--5--5--5--5--5--5--5--5--5-|
D|-------------------------------------5--5--5--5--5--5-------------------|
Comments