Sum 41 - Over My Head Chords & Tabs

 

Over My Head Chords & Tabs

Sum 41 Chords & Tabs

Version: 2 Type: Tab 4 ratings
1 star 2 stars 3 stars 4 stars 5 stars
comments

Over My Head Tab

This is all i got on this song so far, but its accurate!


(Intro) Distorted - Palm Mute
E----------------------------------------|
B----------------------------------------|
G-----------4----4---------2-------------|  X 2
D-------5-----5----5--4--4---4------4----|
A--7--7----7-------------------5--5----5-|
D----------------------------------------|


E--------------------------------------|
B--------------------------------------|
G--------------------------------------|  X 4
D--2-2-2-2--5-5-5-5--0-0-0-0--5-5-5-5--| 
A--2-2-2-2--5-5-5-5--0-0-0-0--5-5-5-5--|
D--2-2-2-2--5-5-5-5--0-0-0-0--5-5-5-5--|

Verse that comes in is the same as the intro but play it 4 times.

Palm Mute everything up until the chorus.


E-------------------------------------------------
B-------------------------------------------------
G-------------------------------------------------
D--------5--------5-----5--------7--------7-----7-
A--3--3--3--3--3--3--3--3--5--5--5--5--5--5--5--5-
D-------------------------------------------------


E-------------------------------------------------
B-------------------------------------------------
G-------------------------------------------------
D-------------------------------------------------
A--------9--------9-----9--------9--------9-----9-
D--7--7--7--7--7--7--7--7--7--7--7--7--7--7--7--7-
[ Tab from: http://www.guitartabs.cc/tabs/s/sum_41/over_my_head_tab_ver_2.html ]
E-------------------------------------------------
B-------------------------------------------------
G-------------------------------------------------
D--------5--------5-----5--------7--------7-----7-
A--3--3--3--3--3--3--3--3--5--5--5--5--5--5--5--5-
D-------------------------------------------------


E-------------------------------------------------|
B-------------------------------------------------|
G-------------------------------------------------|
D-------------------------------------------------|
A--9--9--9--9--9--9--9--9--9--9-------------------|
D--7--7--7--7--7--7--7--7--7--7-------------------|

Chorus

E--------------------------------------------------
B--------------------------------------------------
G--------------------------------------------------
D--2--2--2--2--2--2--2--2--5--5--5--5--5--5--5--5--
A--2--2--2--2--2--2--2--2--3--3--3--3--3--3--3--3--
D--2--2--2--2--2--2--2--2--------------------------


E--------------------------------------------------|
B--------------------------------------------------|
G--------------------------------------------------|
D--5--5--5--5--5--5--5--5--7--7--7--7--7--7--7--7--|
A--5--5--5--5--5--5--5--5--5--5--5--5--5--5--5--5--|
D--5--5--5--5--5--5--5--5--------------------------|
(Now I'm in...)


That' all I got time for, E-mail me and tell me what you think of this!!!
                             David
                      
Comments