Sum 41 - Over My Head Chords & Tabs

 

Over My Head Chords & Tabs

Sum 41 Chords & Tabs

Version: 5 Type: Bass Tab 0 ratings
1 star 2 stars 3 stars 4 stars 5 stars
comments

Over My Head Bass Tab

   
the ones and zeros are tens.

This bridge is right,I saw the other ones and they were mostly wrong, im not saying this
song is perfect but it's pretty close.
over my head...

Guitar intro start at 00:05
intro.
G|-------------------------|
D|-------------------------|
A|-7777-10101010-9999-5555-|
E|-------------------------|x4

verse
G|------------------------|
D|------------------------|
A|-777/5-5/10101010/-5555-|
E|------------------------|x4

verse 2
G|--------------------------------------|
D|---5--5-5---7--7-7---9--9-9-----------|
A|-33-33-3--55-55-5--77-77-7-77--10/9/7-|
E|--------------------------------------|x1

verse 2 cont.
G|-------------------------------|
D|---5--5-5---7--7-7-------------|
A|-33-33-3--55-55-5--77777777777-|
E|-------------------------------|x1

chorus.
G|-----------------------------------|
D|-----------------------------------|
A|---------33333333--------55555505/-|
E|-00000000--------33333333----------|x1

chorus part 2.
G|-----------------------------------------------|
D|-----------------------------------------------|
A|-77777777-1010101010101010-55555555-10-97--579-|
E|-----------------------------------------------|x1

interlude.
G|------------|
D|------------|
A|--33--55050-|
E|-0--33------|x2

verse
G|------------------------|
D|------------------------|
A|-777/5-5/10101010/-5555-|
E|------------------------|x4

verse 2
G|--------------------------------------|
D|---5--5-5---7--7-7---9--9-9-----------|
A|-33-33-3--55-55-5--77-77-7-77--10/9/7-|
E|--------------------------------------|x1

verse 2 cont.
G|-------------------------------|
D|---5--5-5---7--7-7-------------|
A|-33-33-3--55-55-5--77777777777-|
E|-------------------------------|x1
[ Tab from: http://www.guitartabs.cc/tabs/s/sum_41/over_my_head_btab_ver_5.html ]
chorus.
G|-----------------------------------|
D|-----------------------------------|
A|---------33333333--------55555505/-|
E|-00000000--------33333333----------|x1

chorus part 2.
G|-----------------------------------------------|
D|-----------------------------------------------|
A|-77777777-1010101010101010-55555555-10-97--579-|
E|-----------------------------------------------|x1

verse 3.
G|-----------------------------------|
D|-----------------------------------|
A|--------33333333-------------------|
E|-0000000--------33333333-22222222/-|x1 repeat after verse 3 cont.

verse 3cont.
G|---------------------------------------------|
D|----------------------------------------7777-|
A|-77777777-1010101010101010-55555555-5555-----|
E|---------------------------------------------|x1 

then.
G|--------------------------------------------|
D|--------------------------777-7-777-7--77-7-|
A|-77777777-1010101010101010------------------|
E|--------------------------------------------|

Bridge
G|--------------------------------------|
D|--------------------------------------|
A|---------55555555-10/5--12/-10/-9/-10-|
E|-00000000-----------------------------|x3

Bridge cont.
G|---------------------------------------------------------------|
D|---------------------------------------------------------------|
A|---------55555555-10/5--12/-10/-9/-5/--12-12-12-12-12-12-12-12-|
E|-00000000------------------------------------------------------|

chorus.
G|-----------------------------------|
D|-----------------------------------|
A|---------33333333--------55555505/-|
E|-00000000--------33333333----------|x1

chorus part 2.
G|-----------------------------------------------|
D|-----------------------------------------------|
A|-77777777-1010101010101010-55555555-10-97--579-|
E|-----------------------------------------------|x1

interlude.
G|------------|
D|------------|
A|--33--55050-|
E|-0--33------|x4

this should be right i dont know i'll prolly find somthin wrong with it sometime but it seems ok.

submitted by Jordan Gosselin
Comments