Sum 41 - Over My Head Chords & Tabs

 

Over My Head Chords & Tabs

Sum 41 Chords & Tabs

Version: 4 Type: Bass Tab 0 ratings
1 star 2 stars 3 stars 4 stars 5 stars
comments

Over My Head Bass Tab

OK CONE IS A KICK ASS BASSIST ALL OF THE OTHER TABS FOR THIS SONG SUCK
AND IM 100% SURE THIS IS RIGHT


G-------------------------------
D--222-----55---00-0------------
A----- -2-----2-----------------  REPEAT A FEW TIMES THEN
E-------------------------------


[ Tab from: http://www.guitartabs.cc/tabs/s/sum_41/over_my_head_btab_ver_4.html ]
G---------------------------------------------------------------------
D------5----5---5----4----4---4----7----7---7----7----454-------------
A---33---33---3---55---55---5---99---99---9---99---9------7-----------
E---------------------------------------------------------------------


G-------------------------------------------------------
D-----5----5---5----4----4---4--------------------------
A--33---33---3---55---55---5---77777777777--------------
E-------------------------------------------------------
Comments