Sum 41 - Over My Head Chords & Tabs

 

Over My Head Chords & Tabs

Sum 41 Chords & Tabs

Version: 1 Type: Bass Tab 0 ratings
1 star 2 stars 3 stars 4 stars 5 stars
comments

Over My Head Bass Tab

   
Band: Sum 41
Song: Over My Head (Better Off Dead)
Album: Does This Look Infected?
Tabbed by: Eric McKay

This is a great song. Im pretty sure this is correct.
If you have any problems, email me at iam_canadian_ehh@hotmail.com
Please Rate This Tab!!!

Guitar Intro then...

G|-------------------------------------|
D|-------------------------------------|
A|-7-7-7-7-10-10-10-10-9-9-9-9-5-5-5-5-| x4
E|-------------------------------------|

Verse
G|----------------------------|
D|----------------------------|
A|-7-7-7\5--5/10-10-10\5-5-5/-| x4
E|----------------------------|
pm     . .

Pre Chorus
G|-----------------------------------------------------------|
D|-----------------------------------------------------------|
A|-3-3-3-3-3-3-3-3/5-5-5-5-5-5-5-5/7-7-7-7-7h10p7-7-7-10-9-5-|
E|-----------------------------------------------------------|

G|---------------------------------------------------------|
D|---------------------------------------------------------|
A|-3-3-3-3-3-3-3-3/5-5-5-5-5-5-5-5/7-7-7-7-7-7-7-7-7-7-7-7-|
E|---------------------------------------------------------|
[ Tab from: http://www.guitartabs.cc/tabs/s/sum_41/over_my_head_btab.html ]
Chorus pt1
G|-----------------------------------------------------------------|
D|-----------------------------------------------------------------|
A|-----------------3-3-3-3-3-3-3-3-----------------5-5-5-5-5-5-5-5-| x2
E|-0-0-0-0-0-0-0-0-----------------3-3-3-3-3-3-3-3-----------------|

Chorus pt2
G|---------------------|
D|---------------------|
A|-10-10-12-12-7-7-9-9-| x2
E|---------------------|

Verse
Pre Chorus
Chorus pt 1

G|---------------------------------|
D|---------------------------------|
A|---------3-3-3-3---------5-5-5-5-|
E|-0-0-0-0---------3-3-3-3---------|

G|-----------------------------|
D|-----------------------------|
A|---------3-3-3-3-------------|
E|-0-0-0-0---------3-3-3-3-3-3-|

G|---------------------------------|
D|---------------------------------|
A|---------3-3-3-3---------5-5-5-5-|
E|-0-0-0-0---------3-3-3-3---------|

G|---------------------------|
D|---------------------------|
A|---------3-3-3-3--5-5--5-5-|
E|-0-0-0-0-------------------|

G|-----------------------------------------------------------------------|
D|-----------------------------------------------------------------------|
A|-7-7-7-7-7-7-7-7-5-5-5-5-5-5-5-5-10-10-10-10-5-5-5-5-10-10-9-9-7-7-5-5-| x4
E|-----------------------------------------------------------------------|

G|-------------------|
D|-------------------|
A|-10-10-9-9-7-7-5-5-|
E|-------------------|

Chorus pt1
Chorus pt2 x2
Comments