Sum 41 - Open Your Eyes Chords & Tabs

 

Open Your Eyes Chords & Tabs

Sum 41 Chords & Tabs

Version: 3 Type: Tab 0 ratings
1 star 2 stars 3 stars 4 stars 5 stars
comments

Open Your Eyes Tab

Song: Open Your Eyes
Artist: Sum 41
Album: CHUCK
Tabber: Zach Thomas
Date: 1/11/05

This is just the solo for the song. In Solo A, you have to pull slightly all the notes
that have a "^" right after it to give it a good sound. Solo B is the part you hear
after Solo A in the song, it sounds like it's just afects and stuff but I tried to
tab it. You have to listen to the song to know how to play Solo B. Listen carefully...
[ Tab from: http://www.guitartabs.cc/tabs/s/sum_41/open_your_eyes_tab_ver_3.html ]
Solo Part A
e|---------------------------------------------------------------------------|
B|---------------------------------------------------------------------------|
G|-------------15^-17^-18^-17^-18^-20----------------------------------------|
D|-15^-17^-18^----------------------you can hold last note or keep strumming-|
A|---------------------------------------------------------------------------|
E|---------------------------------------------------------------------------|

Solo Part B (plays after Solo A plays)                          
e|---------------------------------------------------------------------------|
B|-13-13----11-11-11----9-9-9----8-8-8----8----7-7-7-------------------------|
G|-------13----------12-------11-------10---10-------10-8-7------------------|
D|----------------------------------------------------------10---------------|
A|-------------------play fast-----------------------------------------------|
E|---------------------------------------------------------------------------|

The whole thing repeats. Solo A plays, then while the last note in Solo A is either
being held or is being plucked, Solo B starts to play. If you have any questions or
comments, email me at zjthomas@columbus.rr.com
Comments