Sum 41 - Open Your Eyes Chords & Tabs

 

Open Your Eyes Chords & Tabs

Sum 41 Chords & Tabs

Version: 2 Type: Tab 0 ratings
1 star 2 stars 3 stars 4 stars 5 stars
comments

Open Your Eyes Tab

   
----------------------------------------------------------------------------
			     Open Your Eyes - Sum 41
----------------------------------------------------------------------------
Tabbed by:TommyWig
Email: tomwignes@gmail.com

Tuning: Standard

  intro 
e|----------------------------------------|
B|----------------------------------------|
G|----------3-3--6-6----------------------|
D|----3-3---3-3--6-6--6-6~----------------|x2
A|----3-3---1-1--4-4--6-6~----------------|
E|----1-1-------------4-4~----------------|

  verse
e|---------------------------------|
B|---------------------------------|
G|-----3-----6---------------------|x1
D|--3--3--6--6---------------------|
A|--3--1--6--4---------------------|
E|--1-----4------------------------|
play each chord 8 times
[ Tab from: http://www.guitartabs.cc/tabs/s/sum_41/open_your_eyes_tab_ver_2.html ]
  chorus
e|----------------------------------------|
B|----------------------------------------|
G|-3-----------6--------------------------|x2
D|-3-etc-3-----6-etc-6--------------------|
A|-1-----3-etc-4-----6-etc----------------|
E|-------1-----------4--------------------|

  play this after 2nd chorus:
e|---------------------------------------|
B|---------------------------------------|
G|-6-6~----------------------------------|x4
D|-6-6~--3-3-3-3-3--3-3-3-x--------------|
A|-4-4~--3-3-3-3-3--3-3-3-x--------------|
E|-------1-1-1-1-1--1-1-1-x--------------|
             . . .  . . .

Sorry, I'm not very good at figuring out solos so, er, good luck.

| /  slide up
| \  slide down
| h  hammer-on
| p  pull-off
| ~  let ring
| +  harmonic
| x  Mute note

=============================================================================
Comments