Sum 41 - Nothing On My Back Chords & Tabs

 

Nothing On My Back Chords & Tabs

Sum 41 Chords & Tabs

Version: 5 Type: Tab 0 ratings
1 star 2 stars 3 stars 4 stars 5 stars
comments

Nothing On My Back Tab

Artist: Sum 41
Track: Nothing On My Back
Album: All Killer No Filler
Tabbed By Mark Brown e-mail markusbrownus2@hotmail.com


Intro                   end on     repeat
e----------------------|---------|------------------|
B----------------------|---------|------------------|
G-----6/7\6-------7-7--|---------|------------------|
D--7--6/7\6--5-x--7-7--|-7-7-7-7-|-7-7-7-7-7-7-7----|
A--7--4/5\4--5-x--5-5--|-7-7-7-7-|-x-x-x-x-x-x-x----|
E--5---------3-x-------|-5-5-5-5-|-5-5-5-5-5-5-5----|

Verse 1
Guitar 1
e---------------------------------------------------------------|
B---------------------------------------------------------------|
G---------------------------------------------------------------|
D-4-4--5--7-7---5--4--5--4-4--2-2---7-7-7--4-4--5--7-7----------|
A-4-4--5--7-7---5--4--5--4-4--2-2---7-7-7--4-4--5--7-7----------|
E-2-2--3--5-5---3--2--3--2-2--0-0---5-5-5--2-2--3--5-5----------|

e---------------------------------------------------------------|
B---------------------------------------------------------------|
G---------------7-7-7-7-7-7-7-7--9-9-9-9-9-9-9-9----------------|
D--5--4--5-5-5--7-7-7-7-7-7-7-7--9-9-9-9-9-9-9-9----------------|
A--5--4--5-5-5--5-5-5-5-5-5-5-5--7-7-7-7-7-7-7-7----------------|
E--3--2--3-3-3--------------------------------------------------|

Verse 1
Guitar 2                              end on
e-----------------------------------|-----------------|
B-----------------------------------|-----------------|
G-----------------------------------|-----------------|
D-x-x-x-7-7-7--x-x-x--x-x-x--7-7-7--|-----------------|
A-x-x-x-7-7-7--x-x-x--x-x-x--7-7-7--|-<7>-<7>-<7>-----|
E-x-x-x-5-5-5--x-x-x--x-x-x--5-5-5--|-<5>-<5>-<5>-----|

Chorus                        end on
e----------------------------|-----------------------|
B----------------------------|-----------------------|
G------------7-7-7-7---------|------------7-7-7------|
D--7-7-7-6-5-7-7-7-7-2-2-2-2-|--7-7-7-6-5-7-7-7-2----|
A--7-7-7-6-5-5-5-5-5-2-2-2-2-|--7-7-7-6-5-5-5-5-2----|
E--5-5-5-4-3---------0-0-0-0-|--5-5-5-4-3-------0----|
[ Tab from: http://www.guitartabs.cc/tabs/s/sum_41/nothing_on_my_back_tab_ver_5.html ]
Verse 2                        end on
e-----------------------------|---------------|
B-----------------------------|---------------|
G-------------------------7---|--7-7-7--------|
D-----7------5------7-----7---|--7-7-7-2------|
A-----7------5------7-5-5-5---|--5-5-5-2------|
E-5-5-5--3-3-3--5-5-5---------|--------0------|
 p.m    p.m     p.m   p.m

Bridge
Guitar 1                         Guitar 2
e------|--------------4--------|--------------12---------------|
B------|----------------5---5--|-----------------12------------|
G-9\---|-7-7-----8-9------4----|-7-7-----8-9-------------------|
D-9\---|-7-7-7-7-8-9-----------|-7-7-7-7-8-9---------13-14-----|
A-7\---|-5-5-7-7-6-7-----------|-5-5-7-7-6-7-------------------|
E------|-----5-5---------------|-----5-5-----------------------|

Bridge 2
Guitar 1           Guitar 2
e----------------|--------------------|
B----------------|--------------------|
G--7-7-----8-9---|--7-7------11--13---|
D--7-7-7-7-8-9---|--7-7-7-7--11--13---|
A--5-5-7-7-6-7---|--5-5-7-7---9--11---|
E------5-5-------|------5-5-----------|

Fill 1
e-------------|-----------------------------------------|
B-------------|-----------------------------------------|
G-------------|-----------------------------------------|
D--7-------2--|-7-7-7-7--5-5-5-5--7-7-7-7--5-5-5-5------|
A--7--16x--2--|-----------------------------------------|
E--5-------0--|-----------------------------------------|

Riff 
Guitar 1                       end on
e-----------------------------|--------------------|
B-----------------------------|--------------------|
G-----9------7----------------|--------------------|
D-----9------7-----9------9---|-7-7-7-7-9-9-9-9----|
A-7-7-7--5-5-5-----9------9---|-7-7-7-7-9-9-9-9----|
E--------------7-7-7--7-7-7---|-5-5-5-5-7-7-7-7----|
  p.m   p.m    p.m    p.m

Riff
Guitar 2
e--------------------------------------|
B--------------------------------------|
G------9-------7-----------------------|
D----9---9---7---7-----9-------7-------|
A--7-------5---------9---9---7---7-----|
E------------------7-------5-----------|

Outro
Guitar 1
e-----------------------------------|
B-----------------------------------|
G--9-9-9-8-7--7-7-------------------|
D--9-9-9-8-7--7-7-7-7-7-7-9-9-9-9---|
A--7-7-7-6-5--5-5-7-7-7-7-9-9-9-9---|
E-----------------5-5-5-5-7-7-7-7---|

Outro
Guitar 2
e----------------------------------|
B----------------------------------|
G--9-9-9-9-11----------------------|
D--9-9-9-9-11-9-9-9-9--12----------|
A--7-7-7-7--9-9-9-9-9--12----------|
E-------------7-7-7-7--10----------|
Comments