Sum 41 - Nothing On My Back Chords & Tabs

 

Nothing On My Back Chords & Tabs

Sum 41 Chords & Tabs

Version: 2 Type: Tab 0 ratings
1 star 2 stars 3 stars 4 stars 5 stars
comments

Nothing On My Back Tab

#----------------------------------PLEASE NOTE--------------------------------#
#This file is the author's own work and represents their interpretation of the#
#song. You may only use this file for private study, scholarship, or research.#
#-----------------------------------------------------------------------------#
#-- File created with Instab - http://www.pconline.com/~smcarey/instab.html --#
#-----------------------------------------------------------------------------#

Author/Artist: Sum 41
Title: Nothing on My Back
Album: All Killer No Filler
Transcribed by: Almighty Gutzappa
Email: almighty_gutzappa@hotmail.com

Standard Tuning

So Im the only one that could figure out Nothing on My Back?

------------------------------------------------------------------------------
------------------------------------------------------------------------------
-2----------------------------------------------------------------------------
-2-7---5-7--------------------------------------------------------------------
-0-4h5-5-4h5------------------------------------------------------------------
-------3----------------------------------------------------------------------
 Main Riff                                                                    

------------------------------------------------------------------------------
------------------------------------------------------------------------------
------------------------------------------------------------------------------
-77777777---------------5/6/7-7----------------5--4/5--4-4-2-2----------------
-00000000---------------5/6/7-7----------------5--4/5--4-4-2-2----------------
------------------------3/4/5-5----------------3--2/3--2-2-0-0----------------
 first Verse ".. a fad" /\      "..and found" /\                              
[ Tab from: http://www.guitartabs.cc/tabs/s/sum_41/nothing_on_my_back_tab_ver_2.html ]
------------------------------------------------------------------------------
------------------------------------------------------------------------------
-------7----------------------------------------------------------------------
-7/5-5-7-2--------------------------------------------------------------------
-7/5-5-5-2--------------------------------------------------------------------
-5/3-3---0--------------------------------------------------------------------
 Chorus                                                                       

------------------------------------------------------------------------------
----------------2------------------------------------2------------------------
-2---------2----2-x4---------------------------------2------------------------
-2-x4-5----2-x4-0------------------------------------0-2----------------------
-0----5-x4-0-------------------------------------------2----------------------
------3------------------------------------------------0----------------------
 2nd Verse - Palm Muting xcept for third notes   End /\                       

------------------------------------------------------------------------------
-3----------------------------------------------------------------------------
-2-2-8/9----------------------------------------------------------------------
-0-2-8/9----------------------------------------------------------------------
---0-6/7----------------------------------------------------------------------
----------4^-5^-7^-5^---------------------------------------------------------
 dealie in between                                                            

------------------------------------------------------------------------------
------------------------------------------------------------------------------
------------------------------------------------------------------------------
------------------------------------------------------------------------------
-7777-5555-----------7777-5555-----------7777-5555----------------------------
-----------5555-7777-----------5555-7777-----------5555-7777------------------
 Bridge- Palm muting                                                          

------------------------------------------------------------------------------
------------------------------------------------------------------------------
-9----7-----------------------------------------------------------------------
-9-x4-7-x4-7----9-------------------------------------------------------------
-7----5----7-x4-9-x4----------------------------------------------------------
-----------5----7-------------------------------------------------------------
 Bridge, cont'd  Not Palm Muted!                                              

Comments