Sum 41 - Nothing On My Back Chords & Tabs

 

Nothing On My Back Chords & Tabs

Sum 41 Chords & Tabs

Version: 1 Type: Tab 0 ratings
1 star 2 stars 3 stars 4 stars 5 stars
comments

Nothing On My Back Tab

Sum41 – Nothing on my back

I think most of this is right, it sounds ok to me:

Intro:

E-----5---------5---------3---------5--
B-----5---------7---------3---------7--
G-----6---------7---------4---------7--
D-----7---------7---------5---------7--
A-----7---------5---------5---------5--
E-----5---------5---------3---------5--
  
      3         2         3         2

VERSE 1:
PM:
E------5
B------5
G------6              PM FOR A WHILE THEN :
D------7
A------7
E------5

E----5----2----3----5----5--
B----5----2----3----5----5--
G----6----3----4----6----6--
D----7----4----5----7----7--
A----7----4----5----7----7--
E----5----2----3----5----5—-

That’s pretty much it for the verse, there is some other chords fitted in between theses two which you should be able to hear, but aren’t really important enough to write down.

CHORUS:

INTRO:

E----5--
B----7--
G----7--
D----7--       x 3
A----5--
E----5—-

Then:

E----5----3----5----1--
B----5----3----7----1--
G----6----4----7----2--
D----7----5----7----3--           x4
A----7----5----5----3--
E----5----3----5----1—-

     3    3    3    3






BACK TO INTRO, THEN:
[ Tab from: http://www.guitartabs.cc/tabs/s/sum_41/nothing_on_my_back_tab.html ]
E----x--x--5—5----x—x—3—3----x—x—5—5----x—x--5—5--
B----x--x--5—5----x—x—3—3----x—x—5—5----x—x--7—7--
G----x--x--6—6----x—x—4—4----x—x—6—6----x—x--7—7--
D----x--x--7—7----x—x—5—5----x—x—7—7----x—x--7—7--
A----x--x--7—7----x—x—5—5----x—x—7—7----x—x--5—5--
E----x--x--5—5----x—x—3—3----x—x—5—5----x—x--5—5—-


CHORUS

MIDDLE 8:

E----5----5----6----7---------------------
B----7----5----8----9----9----------------
G----7----6----8----9---------9---------9
D----7----7----8----9--------------9-----    x2
A----5----7----6----7--------------------
E----5----5----6----7--------------------

E----5----5----6----7--
B----7----5----8----9--
G----7----6----8----9--
D----7----7----8----9--    x2
A----5----7----6----7--
E----5----5----6----7--

E----5----5----6----
B----7----5----8----
G----7----6----8----
D----7----7----8----     x3
A----5----7----6----
E----5----5----6----

PM:

E--------------------------
B--------------------------
G--------------------------      x4 PM
D--------------------------
A----99995555--------------
E---------------55559999---              

E---------------------------
B---------------------------
G----99997777---------------
D----9999777777779999-------     PM at first, then not
A----7777555577779999-------
E----------------55557777---


That’s just about it, any queries or corrections e-mail me at: danharris_@hotmail.com
Comments