Sum 41 - Noots Chords & Tabs

 

Noots Chords & Tabs

Sum 41 Chords & Tabs

Version: 1 Type: Bass Tab 0 ratings
1 star 2 stars 3 stars 4 stars 5 stars
comments

Noots Bass Tab

   
Should have named it bootz....why?....Just cause you can. This song is from the
fantastic 4 album, still have to see that movie..gosh
<3 Paris

H =HAMMER
P =PULL
~ =LET RING
/ =SLIDE

Intro [x1]
G|-----------------------------------------|
D|-----------------------------------------|
A|----------44444444-66666666--------------|
E|-5/11111111-------------------4444-3333--|

G|---------------------------------------|
D|---------------------------------------|
A|----------44444444-66666666------------|
E|-11111111-------------------4444-3333--|

Verse [x2]
G|-------------------------------------|
D|-------------------------------------|
A|-------------------4444444444444444--|
E|-11111111-44444444-------------------|

G|------------------------------------------|
D|------------------------------------------|
A|--------------------------------------44--|
E|-11111111-44444444-6666-4444-66-44-66-----|

Chorus [x2]
G|------------------------------------|
D|------------------------66-55-------|
A|----------44444444------------6666--|
E|-11111111----------4444-------------|

Out Chorus [x2]
G|---------------------------------------|
D|---------------------------------------|
A|-444444-66-88888888----------66666666--|
E|--------------------44444444-----------|

Intro [x1]
G|---------------------------------------|
D|---------------------------------------|
A|----------44444444-66666666------------|
E|-11111111-------------------4444-3333--|

Verse [x4]
G|-------------------------------------|
D|-------------------------------------|
A|-------------------4444444444444444--|
E|-11111111-44444444-------------------|
[ Tab from: http://www.guitartabs.cc/tabs/s/sum_41/noots_btab.html ]
Chorus [x2]
G|------------------------------------|
D|------------------------66-55-------|
A|----------44444444------------6666--|
E|-11111111----------4444-------------|

Out Chorus [x2]
G|---------------------------------------|
D|---------------------------------------|
A|-444444-66-88888888----------66666666--|
E|--------------------44444444-----------|

Bridge [x1]
G|------------------------------------------|
D|-------------------------------5---6-5----|
A|-88888888-44444444----------66---6-----6--|
E|-------------------44444444---------------|

G|--------------------------------------|
D|--------------------------------------|
A|-88888888-44444444----------6-66H8P6--|
E|-------------------44444444-----------|

Interlude Part 1 [x1]
G|---------------------------|
D|-1/3-----3--------3-1------|
A|-----4----4---4-6-----4----|
E|-------4-----4----------4--|

Interlude Part 2 [x7]
G|-----------------------------|
D|-3-----3----------3-1--------|
A|-----4----4----4-6-----4-----|
E|--------4----4-----------4---|

Chorus [x2]
G|------------------------------------|
D|------------------------66-55-------|
A|----------44444444------------6666--|
E|-11111111----------4444-------------|

Out Chorus [x2]
G|---------------------------------------|
D|---------------------------------------|
A|-444444-66-88888888----------66666666--|
E|--------------------44444444-----------|

End [x1]
G|---------------------------------------|
D|---------------------------------------|
A|----------44444444-66666666------------|
E|-11111111-------------------4444-3333--|

G|------------------------------------------|
D|------------------------------------------|
A|----------44444444-66666666---------------|
E|-11111111-------------------4444-3333--1~-|
Comments