Sum 41 - No Sleep Till Brookland Chords & Tabs

 

No Sleep Till Brookland Chords & Tabs

Sum 41 Chords & Tabs

Version: 1 Type: Tab 0 ratings
1 star 2 stars 3 stars 4 stars 5 stars
comments

No Sleep Till Brookland Tab

Hello boys and girls this is the live version of "No Sleep Till 
Brookland." That Sum 41 did at mtv 20th birthday special. this sounds
right but it likes there playing it in a different position so there 
probably using a dropped tuning but this is in standard.
[ Tab from: http://www.guitartabs.cc/tabs/s/sum_41/no_sleep_till_brookland_tab.html ]
MAIN RIFF             VERSE RIFF
G-------------7---  G--------------------
D-2-2--5-7----7-7-  D-2-------2------5-7-
A-2-2--5-7----5-7-  A-2-------2------5-7-
E-0-0--3-5------5-  E-0-------0------3-5-

END OF CHORUS 
G-------------------------------7---
D---2-------5-----------------7-7-7-
A---2-------5-----------------7-5-7-
E---0-------3-----------------5---5-
 NO   SLEEP   TILL BROOKELAND!

NOW THAT WAS PAINFULLY EASY WASN'T IT.IF THERE IS SOMETHING WITH THIS
I REALY DON'T CARE BUT IF U WANT ANY ALICE IN CHAINS TABS OR METALLICA
TABS EMAIL ME AT viclives10@aol.com
 




Comments