Sum 41 - No Reason Chords & Tabs

 

No Reason Chords & Tabs

Sum 41 Chords & Tabs

Version: 7 Type: Tab 0 ratings
1 star 2 stars 3 stars 4 stars 5 stars
comments

No Reason Tab

No Reason 
Sum 41
tabbed by Matt Shannon
Tuning Dropped D then a Half step down
                                                                   
Eb||--------------------|--------------------|--------------------|
Bb||--------------------|--------------------|--------------------|
Gb||---------------5----|--------------------|---------------4----|
Db||--2------------5----|------5--------2----|--2------------4----|
Ab||--2------------3----|------5--------2----|--2------------2----|
Db||--2-----------------|------5--------2----|--2-----------------|


                                                                 
----------------------|--------------------|--------------------|
----------------------|--------------------|--------------------|
----------------------|---------------5----|--------------------|
------0----------2----|--2------------5----|------5--------2----|
------0----0--0--2----|--2------------3----|------5--------2----|
------0----0--0--2----|--2-----------------|------5--------2----|


                                                                   
--------------------|--------------------|------------------------|
--------------------|--------------------|------------------------|
---------------4----|------7-------------|------------------------|
--2------------4----|------7--------2----|--------5----5h-4h-0----|
--2------------2----|------5--------2----|------------------------|
--2-----------------|---------------2----|--2--2------------------|


                                                  
------------------------|------------------------|
------------------------|------------------------|
------------------------|------------------------|
--------5----5h-4h-0----|--------5----5h-4h-0----|
------------------------|------------------------|
--2--2------------------|--2--2------------------|


                                              
--------------------|------------------------|
--------------------|------------------------|
--5-----------------|------------------------|
--5--------5--------|--------5----5h-4h-0----|
--3--------5--------|------------------------|
-----------5--------|--2--2------------------|


                                                  
------------------------|------------------------|
------------------------|------------------------|
------------------------|------------------------|
--------5----5h-4h-0----|--------5----5h-4h-0----|
------------------------|------------------------|
--2--2------------------|--2--2------------------|


                                                    
--------------------------|------------------------|
--------------------------|------------------------|
--------------------------|------------------------|
--4--4--4--4--7--7--7--7--|--------5----5--4--0----|
--2--2--2--2--5--5--5--5--|------------------------|
--------------------------|--2--2------------------|


                                                  
------------------------|------------------------|
------------------------|------------------------|
------------------------|------------------------|
--------5----5--4--0----|--------5----5--4--0----|
--3--3------------------|------------------------|
------------------------|--2--2------------------|


                                                  
------------------------|------------------------|
------------------------|------------------------|
------------------------|------------------------|
--------4----------7----|--------5----5--4--0----|
--2--2-------5--5-------|------------------------|
------------------------|--2--2------------------|


                                                  
------------------------|------------------------|
------------------------|------------------------|
------------------------|------------------------|
--------5----5--4--0----|--------5----5--4--0----|
--3--3------------------|------------------------|
------------------------|--2--2------------------|


                                                    
------------------------|--------------------------|
------------------------|--------------------------|
------------------------|--------------------------|
--------4----------7----|--------------------------|
--2--2-------5--5-------|--------------3--3--2--2--|
------------------------|--0--2--2--2--------------|


                                                      
--------------------------|--------------------------|
--------------------------|--------------------------|
--------------------------|--------------------------|
--------------5--4--0--0--|--------------------------|
--------------------------|--------------3--3--2--2--|
--0--2--2--2--------------|--0--2--2--2--------------|


                                                      
--------------------------|--------------------------|
--------------------------|--------------------------|
--------------------------|--------------------------|
--------------5--4--0--0--|--------------------------|
--------------------------|--------------3--3--2--2--|
--0--2--2--2--------------|--0--2--2--2--------------|


                                                     
-------------------------|--0--0--0--0--2--2--2--2--|
-------------------------|--0--0--0--0--0--0--0--0--|
-------------------------|--------------------------|
--------------5--4-------|--------------------------|
--------------------5/---|--------------------------|
--0--2--2--2-------------|--------------------------|


                                                      
--3--3--3--3--5--5--5--5--|--7--7--7--7--5--5--5--5--|
--0--0--0--0--0--0--0--0--|--0--0--0--0--0--0--0--0--|
--------------------------|--------------------------|
--------------------------|--------------------------|
--------------------------|--------------------------|
--------------------------|--------------------------|


                                                      
--3--3--3--3--5--5--5--5--|--0--0--0--0--2--2--2--2--|
--0--0--0--0--0--0--0--0--|--0--0--0--0--0--0--0--0--|
--------------------------|--------------------------|
--------------------------|--------------------------|
--------------------------|--------------------------|
--------------------------|--------------------------|


                                                      
--3--3--3--3--5--5--5--5--|--7--7--7--7--5--5--5--5--|
--0--0--0--0--0--0--0--0--|--0--0--0--0--0--0--0--0--|
--------------------------|--------------------------|
--------------------------|--------------------------|
--------------------------|--------------------------|
--------------------------|--------------------------|


                                                      
--3--3--3--3--5--5--5--5--|--------------------------|
--0--0--0--0--0--0--0--0--|--------------------------|
--------------------------|--5--5--5--5--5--5--5--5--|
--------------------------|--5--5--5--5--5--5--5--5--|
--------------------------|--3--3--3--3--3--3--3--3--|
--------------------------|--------------------------|


                                                      
--------------------------|--------------------------|
--------------------------|--------------------------|
--------------------------|--7--7--7--7--7--7--7--7--|
--5--5--5--5--5--5--5--5--|--7--7--7--7--7--7--7--7--|
--5--5--5--5--5--5--5--5--|--5--5--5--5--5--5--5--5--|
--5--5--5--5--5--5--5--5--|--------------------------|


                                                      
--------------------------|--------------------------|
--------------------------|--------------------------|
--7--7--7--7--7--7--7--7--|--5--5--5--5--5--5--5--5--|
--7--7--7--7--7--7--7--7--|--5--5--5--5--5--5--5--5--|
--5--5--5--5--5--5--5--5--|--3--3--3--3--3--3--3--3--|
--------------------------|--------------------------|


                                                      
--------------------------|--------------------------|
--------------------------|--------------------------|
--------------------------|--7--7--7--7--7--7--7--7--|
--5--5--5--5--5--5--5--5--|--7--7--7--7--7--7--7--7--|
--5--5--5--5--5--5--5--5--|--5--5--5--5--5--5--5--5--|
--5--5--5--5--5--5--5--5--|--------------------------|


                                                      
--------------------------|--------------------------|
--------------------------|--------------------------|
--9--9--9--9--9--9--9--9--|--5--5--5--5--5--5--5--5--|
--9--9--9--9--9--9--9--9--|--5--5--5--5--5--5--5--5--|
--7--7--7--7--7--7--7--7--|--3--3--3--3--3--3--3--3--|
--------------------------|--------------------------|


                                                      
--------------------------|--------------------------|
--------------------------|--------------------------|
--------------------------|--7--7--7--7--7--7--7--7--|
--5--5--5--5--5--5--5--5--|--7--7--7--7--7--7--7--7--|
--5--5--5--5--5--5--5--5--|--5--5--5--5--5--5--5--5--|
--5--5--5--5--5--5--5--5--|--------------------------|


                                                      
--------------------------|--------------------------|
--------------------------|--------------------------|
--7--7--7--7--7--7--7--7--|--5--5--5--5--5--5--5--5--|
--7--7--7--7--7--7--7--7--|--5--5--5--5--5--5--5--5--|
--5--5--5--5--5--5--5--5--|--3--3--3--3--3--3--3--3--|
--------------------------|--------------------------|


                                                      
--------------------------|--------------------------|
--------------------------|--------------------------|
--------------------------|--7--7--7--7--7--7--7--7--|
--5--5--5--5--5--5--5--5--|--7--7--7--7--7--7--7--7--|
--5--5--5--5--5--5--5--5--|--5--5--5--5--5--5--5--5--|
--5--5--5--5--5--5--5--5--|--------------------------|


                                                      
--------------------------|--------------------------|
--------------------------|--------------------------|
--9--9--9--9--9--9--9--9--|--------------------------|
--9--9--9--9--9--9--9--9--|--------2--------4--------|
--7--7--7--7--7--7--7--7--|--------------------------|
--------------------------|--2--2-----2--2-----2--2--|


                                                      
--------------------------|--------------------------|
--------------------------|--------------------------|
--------------------------|--------------------------|
--5-----------------------|--------------------------|
-----------------5--------|--------------3--3--2--2--|
-----2--2--4h-5-----4h-5--|--0--2--2--2--------------|


                                                      
--------------------------|--------------------------|
--------------------------|--------------------------|
--------------------------|--------------------------|
--------------5--4--0--0--|--------------------------|
--------------------------|--------------3--3--2--2--|
--0--2--2--2--------------|--0--2--2--2--------------|


                                                      
--------------------------|--------------------------|
--------------------------|--------------------------|
--------------------------|--------------------------|
--------------5--4--0--0--|--------------------------|
--------------------------|--------------3--3--2--2--|
--0--2--2--2--------------|--0--2--2--2--------------|


                                                     
-------------------------|--0--0--0--0--2--2--2--2--|
-------------------------|--0--0--0--0--0--0--0--0--|
-------------------------|--------------------------|
--------------5--4-------|--------------------------|
--------------------5/---|--------------------------|
--0--2--2--2-------------|--------------------------|


                                                      
--3--3--3--3--5--5--5--5--|--7--7--7--7--5--5--5--5--|
--0--0--0--0--0--0--0--0--|--0--0--0--0--0--0--0--0--|
--------------------------|--------------------------|
--------------------------|--------------------------|
--------------------------|--------------------------|
--------------------------|--------------------------|


                                                      
--3--3--3--3--5--5--5--5--|--0--0--0--0--2--2--2--2--|
--0--0--0--0--0--0--0--0--|--0--0--0--0--0--0--0--0--|
--------------------------|--------------------------|
--------------------------|--------------------------|
--------------------------|--------------------------|
--------------------------|--------------------------|


                                                      
--3--3--3--3--5--5--5--5--|--7--7--7--7--5--5--5--5--|
--0--0--0--0--0--0--0--0--|--0--0--0--0--0--0--0--0--|
--------------------------|--------------------------|
--------------------------|--------------------------|
--------------------------|--------------------------|
--------------------------|--------------------------|


                                                      
--3--3--3--3--5--5--5--5--|--------------------------|
--0--0--0--0--0--0--0--0--|--------------------------|
--------------------------|--5--5--5--5--5--5--5--5--|
--------------------------|--5--5--5--5--5--5--5--5--|
--------------------------|--3--3--3--3--3--3--3--3--|
--------------------------|--------------------------|


                                                      
--------------------------|--------------------------|
--------------------------|--------------------------|
--------------------------|--7--7--7--7--7--7--7--7--|
--5--5--5--5--5--5--5--5--|--7--7--7--7--7--7--7--7--|
--5--5--5--5--5--5--5--5--|--5--5--5--5--5--5--5--5--|
--5--5--5--5--5--5--5--5--|--------------------------|


                                                      
--------------------------|--------------------------|
--------------------------|--------------------------|
--7--7--7--7--7--7--7--7--|--5--5--5--5--5--5--5--5--|
--7--7--7--7--7--7--7--7--|--5--5--5--5--5--5--5--5--|
--5--5--5--5--5--5--5--5--|--3--3--3--3--3--3--3--3--|
--------------------------|--------------------------|


                                                      
--------------------------|--------------------------|
--------------------------|--------------------------|
--------------------------|--7--7--7--7--7--7--7--7--|
--5--5--5--5--5--5--5--5--|--7--7--7--7--7--7--7--7--|
--5--5--5--5--5--5--5--5--|--5--5--5--5--5--5--5--5--|
--5--5--5--5--5--5--5--5--|--------------------------|

[ Tab from: http://www.guitartabs.cc/tabs/s/sum_41/no_reason_tab_ver_7.html ]
                                                      
--------------------------|--------------------------|
--------------------------|--------------------------|
--9--9--9--9--9--9--9--9--|--5--5--5--5--5--5--5--5--|
--9--9--9--9--9--9--9--9--|--5--5--5--5--5--5--5--5--|
--7--7--7--7--7--7--7--7--|--3--3--3--3--3--3--3--3--|
--------------------------|--------------------------|


                                                      
--------------------------|--------------------------|
--------------------------|--------------------------|
--------------------------|--7--7--7--7--7--7--7--7--|
--5--5--5--5--5--5--5--5--|--7--7--7--7--7--7--7--7--|
--5--5--5--5--5--5--5--5--|--5--5--5--5--5--5--5--5--|
--5--5--5--5--5--5--5--5--|--------------------------|


                                                      
--------------------------|--------------------------|
--------------------------|--------------------------|
--7--7--7--7--7--7--7--7--|--5--5--5--5--5--5--5--5--|
--7--7--7--7--7--7--7--7--|--5--5--5--5--5--5--5--5--|
--5--5--5--5--5--5--5--5--|--3--3--3--3--3--3--3--3--|
--------------------------|--------------------------|


                                                      
--------------------------|--------------------------|
--------------------------|--------------------------|
--------------------------|--7--7--7--7--7--7--7--7--|
--5--5--5--5--5--5--5--5--|--7--7--7--7--7--7--7--7--|
--5--5--5--5--5--5--5--5--|--5--5--5--5--5--5--5--5--|
--5--5--5--5--5--5--5--5--|--------------------------|


                                                      
--------------------------|--------------------------|
--------------------------|--------------------------|
--9--9--9--9--9--9--9--9--|--9--9--9--9--7--7--7--7--|
--9--9--9--9--9--9--9--9--|--9--9--9--9--7--7--7--7--|
--7--7--7--7--7--7--7--7--|--7--7--7--7--5--5--5--5--|
--------------------------|--------------------------|


                                                      
--------------------------|--------------------------|
--------------------------|--------------------------|
--5--5--5--5--------------|--4--4--4--4--------------|
--5--5--5--5--5--5--5--5--|--4--4--4--4--0--0--0--0--|
--3--3--3--3--5--5--5--5--|--2--2--2--2--0--0--0--0--|
--------------5--5--5--5--|--------------0--0--0--0--|


                                                      
--------------------------|--------------------------|
--------------------------|--------------------------|
--4--4--4--4--------------|--9--9--9--9--7--7--7--7--|
--4--4--4--4--0--0--0--0--|--9--9--9--9--7--7--7--7--|
--2--2--2--2--0--0--0--0--|--7--7--7--7--5--5--5--5--|
--------------0--0--0--0--|--------------------------|


                                                      
--------------------------|--------------------------|
--------------------------|--------------------------|
--5--5--5--5--------------|--4--4--4--4--------------|
--5--5--5--5--5--5--5--5--|--4--4--4--4--0--0--0--0--|
--3--3--3--3--5--5--5--5--|--2--2--2--2--0--0--0--0--|
--------------5--5--5--5--|--------------0--0--0--0--|


                                                    
--------------------------|------------------------|
--------------------------|------------------------|
--4--4--4--4--------------|------------------------|
--4--4--4--4--0--0--0--0--|--------5----5h-4h-0----|
--2--2--2--2--0--0--0--0--|------------------------|
--------------0--0--0--0--|--2--2------------------|


                                                  
------------------------|------------------------|
------------------------|------------------------|
------------------------|------------------------|
--------5----5h-4h-0----|--------5----5h-4h-0----|
------------------------|------------------------|
--2--2------------------|--2--2------------------|


                                              
--------------------|------------------------|
--------------------|------------------------|
--5-----------------|------------------------|
--5--------5--------|--------5----5h-4h-0----|
--3--------5--------|------------------------|
-----------5--------|--2--2------------------|


                                                  
------------------------|------------------------|
------------------------|------------------------|
------------------------|------------------------|
--------5----5h-4h-0----|--------5----5h-4h-0----|
------------------------|------------------------|
--2--2------------------|--2--2------------------|


                                                    
--------------------------|------------------------|
--------------------------|------------------------|
--------------------------|------------------------|
--4--4--4--4--7--7--7--7--|--------5----5--4--0----|
--2--2--2--2--5--5--5--5--|------------------------|
--------------------------|--2--2------------------|


                                                  
------------------------|------------------------|
------------------------|------------------------|
------------------------|------------------------|
--------5----5--4--0----|--------5----5--4--0----|
--3--3------------------|------------------------|
------------------------|--2--2------------------|


                                                  
------------------------|------------------------|
------------------------|------------------------|
------------------------|------------------------|
--------4----------7----|--------5----5--4--0----|
--2--2-------5--5-------|------------------------|
------------------------|--2--2------------------|


                                                  
------------------------|------------------------|
------------------------|------------------------|
------------------------|------------------------|
--------5----5--4--0----|--------5----5--4--0----|
--3--3------------------|------------------------|
------------------------|--2--2------------------|


                                                    
------------------------|--------------------------|
------------------------|--------------------------|
------------------------|--7-----------------------|
--------4----------7----|--7--7--7--7--7--7--7--7--|
--2--2-------5--5-------|--5--5--5--5--5--5--5--5--|
------------------------|--------------------------|


                                                              
--------------------------|----------------------------------|
--------------------------|----------------------------------|
--7--7--7--7--7--7--7--7--|--12--12--11--11--12--12--14--14--|
--7--7--7--7--7--7--7--7--|----------------------------------|
--5--5--5--5--5--5--5--5--|--10--10--9---9---10--10--12--12--|
--------------------------|----------------------------------|


                                                                  
------------------------------|----------------------------------|
------------------------------|----------------------------------|
--12--12--9--9--11--11--7--7--|--12--12--11--11--12--12--14--14--|
------------------------------|----------------------------------|
--10--10--7--7--9---9---5--5--|--10--10--9---9---10--10--12--12--|
------------------------------|----------------------------------|


                                                                    
--------------------------------|----------------------------------|
--------------------------------|----------------------------------|
--12--12--11--11--12--12--7--7--|--12--12--11--11--12--12--14--14--|
--------------------------------|----------------------------------|
--10--10--9---9---10--10--5--5--|--10--10--9---9---10--10--12--12--|
--------------------------------|----------------------------------|


                                                                  
------------------------------|----------------------------------|
------------------------------|----------------------------------|
--12--12--9--9--11--11--7--7--|--12--12--11--11--12--12--14--14--|
------------------------------|----------------------------------|
--10--10--7--7--9---9---5--5--|--10--10--9---9---10--10--12--12--|
------------------------------|----------------------------------|


                                                                    
--------------------------------|----------------------------------|
--------------------------------|----------------------------------|
--12--12--11--11--12--12--7--7--|--12--12--11--11--12--12--14--14--|
--------------------------------|----------------------------------|
--10--10--9---9---10--10--5--5--|--10--10--9---9---10--10--12--12--|
--------------------------------|----------------------------------|


                                                                  
------------------------------|----------------------------------|
------------------------------|----------------------------------|
--12--12--9--9--11--11--7--7--|--12--12--11--11--12--12--14--14--|
------------------------------|----------------------------------|
--10--10--7--7--9---9---5--5--|--10--10--9---9---10--10--12--12--|
------------------------------|----------------------------------|


                                                                    
--------------------------------|----------------------------------|
--------------------------------|----------------------------------|
--12--12--11--11--12--12--7--7--|--12--12--11--11--12--12--14--14--|
--------------------------------|----------------------------------|
--10--10--9---9---10--10--5--5--|--10--10--9---9---10--10--12--12--|
--------------------------------|----------------------------------|


                                                                  
------------------------------|----------------------------------|
------------------------------|----------------------------------|
--12--12--9--9--11--11--7--7--|--12--12--11--11--12--12--14--14--|
------------------------------|----------------------------------|
--10--10--7--7--9---9---5--5--|--10--10--9---9---10--10--12--12--|
------------------------------|----------------------------------|


                                                                    
--------------------------------|----------------------------------|
--------------------------------|----------------------------------|
--12--12--11--11--12--12--7--7--|--12--12--11--11--12--12--14--14--|
--------------------------------|----------------------------------|
--10--10--9---9---10--10--5--5--|--10--10--9---9---10--10--12--12--|
--------------------------------|----------------------------------|


                                                                  
------------------------------|----------------------------------|
------------------------------|----------------------------------|
--12--12--9--9--11--11--7--7--|--12--12--11--11--12--12--14--14--|
------------------------------|----------------------------------|
--10--10--7--7--9---9---5--5--|--10--10--9---9---10--10--12--12--|
------------------------------|----------------------------------|


                                                                    
--------------------------------|----------------------------------|
--------------------------------|----------------------------------|
--12--12--11--11--12--12--7--7--|--12--12--11--11--12--12--14--14--|
--------------------------------|----------------------------------|
--10--10--9---9---10--10--5--5--|--10--10--9---9---10--10--12--12--|
--------------------------------|----------------------------------|


                                                                  
------------------------------|----------------------------------|
------------------------------|----------------------------------|
--12--12--9--9--11--11--7--7--|--12--12--11--11--12--12--14--14--|
------------------------------|----------------------------------|
--10--10--7--7--9---9---5--5--|--10--10--9---9---10--10--12--12--|
------------------------------|----------------------------------|


                                                                    
--------------------------------|----------------------------------|
--------------------------------|----------------------------------|
--12--12--11--11--12--12--7--7--|--12--12--11--11--12--12--14--14--|
--------------------------------|----------------------------------|
--10--10--9---9---10--10--5--5--|--10--10--9---9---10--10--12--12--|
--------------------------------|----------------------------------|


                                                                  
------------------------------|----------------------------------|
------------------------------|----------------------------------|
--12--12--9--9--11--11--7--7--|--12--12--11--11--12--12--14--14--|
------------------------------|----------------------------------|
--10--10--7--7--9---9---5--5--|--10--10--9---9---10--10--12--12--|
------------------------------|----------------------------------|


                                                                    
--------------------------------|----------------------------------|
--------------------------------|----------------------------------|
--12--12--11--11--12--12--7--7--|--12--12--11--11--12--12--14--14--|
--------------------------------|----------------------------------|
--10--10--9---9---10--10--5--5--|--10--10--9---9---10--10--12--12--|
--------------------------------|----------------------------------|


                                                                  
------------------------------|----------------------------------|
------------------------------|----------------------------------|
--12--12--9--9--11--11--7--7--|--12--12--11--11--12--12--14--14--|
------------------------------|----------------------------------|
--10--10--7--7--9---9---5--5--|--10--10--9---9---10--10--12--12--|
------------------------------|----------------------------------|


                                                      
--------------------------------|--------------------|
--------------------------------|--------------------|
--12--12--11--11--12--12--7--7--|--------------------|
--------------------------------|--2--------2--------|
--10--10--9---9---10--10--5--5--|--2--------2--------|
--------------------------------|--2--------2--------|


                                
-------------------|----------||
-------------------|----------||
-------------------|----------||
--2----------------|----------||
--2----------------|----------||
--2----------------|----------||
Comments