Sum 41 - No Reason Chords & Tabs

 

No Reason Chords & Tabs

Sum 41 Chords & Tabs

Version: 5 Type: Tab 0 ratings
1 star 2 stars 3 stars 4 stars 5 stars
comments

No Reason Tab

SONG: no reason
BAND: Sum 41
TABBED BY: mike
EMAIL: me_mike12@hotmail.com
TUNING: drop d and down 1/2 step

k, this is a good song and none of the other versions seemed quite right, so here it goes...

theres not much of both guitars in here(that i can tell {besides bass}


intro:

e|----------------------------------------|
B|----------------------------------------|
G|----5--------4-----------5--------4-7---|
D|-2--5-5-2-2--4-0-xx-2-2--5-5-2-2--4-7---|
A|-2--3-5-2-2--2-0-xx-2-2--3-5-2-2--2-5---|
E|-2----5-2-2----0-xx-2-2----5-2-2--------|

e|---------------------------------------------------------|
B|---------------------------------------------------------|
G|----------------------------------------5-5--------------|
D|-2-2-2-5-5-4-------5-5-4-------5-5-4----5-5--5-5---------|
A|-2-2-2-------5-----------5-----------5--3-3--5-5---------|
E|-2-2-2---------2-2---------2-2----------5-5--5-5---------|

e|-------------------------------------------------------|
B|-------------------------------------------------------|
G|---------------------------------------4444-7777-------|
D|-2-2-5-5-4---2-2-5-5-4---2-2-5-5-4-----4444-7777-------|
A|-2-2-------5-2-2-------5-2-2-------5-2-2222-5555-------|
E|-2-2---------2-2---------2-2---------------------------|

intro part 2:

e|----------------------------|
B|----------------------------|
G|----5------4-7--------------|//play 2x; listen to song for strum pattern
D|-2--5-0-2--4-7--------------|
A|-2--3-0-2--2-5--------------|
E|-2----0-2-------------------|

guitar 2:

e|---------|
B|---------|
G|---------|   //repeat
D|-5-4-----|
A|-----5---|
E|---------|

verse:

e|------------------------------------|
B|------------------------------------|
G|------------------------------------|  //repeat until done
D|-------------------------5-4--------|
A|-0-2-2-2-3-3-2-2-0-2-2-2-----5-5----|
E|-0-2-2-2---------0-2-2-2------------|
[ Tab from: http://www.guitartabs.cc/tabs/s/sum_41/no_reason_tab_ver_5.html ]
pre-chorus:
guitar 1:
just play verse 3 times then:
e|-----------------------------|
B|-----------------------------|
G|-----------------------------|
D|---------5-5-4-4-77777777----|
A|-0-2-2-2-3-3-2-2-55555555----|
E|-0-2-2-2---------------------|

guitar 2:
e|-----------------------|
B|---7-8-10-12-10-8-10---|
G|-9---------------------| //strike each note 2wice & play 2X
D|-----------------------|
A|-----------------------|
E|-----------------------|

chorus:

e|---------------------------|
B|---------------------------|
G|-5-----7--5-----7--9-------|  //repeat 2wice; listen to song for strum p
D|-5--5--7--5--5--7--9-------|  // attern
A|-3--5--5--3--5--5--7-------|
E|----5--------5-------------|

after 1st chorus:
e|--------------------------------------|
B|--------------------------------------|
G|--------------------------------------|
D|-----2-----4-----5--------------------|
A|--------------------------------------|
E|-2-2---2-2---2-2---2-2-5-4-5-4-5------|

bridge:
e|---------------------|
B|---------------------|
G|-9-7-5---4-7-4-7-----|   // 2x
D|-9-7-5-5-4-5-4-7-----|
A|-7-5-3-5-2-5-2-5-----|
E|-------5-------------|

e|-------------------------------------------------------|
B|-------------------------------------------------------|
G|--------------------------------------5-5--------------|
D|-2-2-5-5-4---2-2-5-5-4---2-2-5-5-4----5-5--5-5---------|
A|-2-2-------5-2-2-------5-2-2-------5--3-3--5-5---------|
E|-2-2---------2-2---------2-2----------5-5--5-5---------|

e|-------------------------------------------------------|
B|-------------------------------------------------------|
G|---------------------------------------4444-7777-------|
D|-2-2-5-5-4---2-2-5-5-4---2-2-5-5-4-----4444-7777-------|
A|-2-2-------5-2-2-------5-2-2-------5-2-2222-5555-------|
E|-2-2---------2-2---------2-2---------------------------|

e|------------------------------------|
B|------------------------------------|
G|-------------5---------------4-7----|  //2x
D|-2-2-5-5-4---5-5-2-2-5-5-4---4-7----|
A|-2-2-------5-3-5-2-2-------5-2-5----|
E|-2-2---------5-5-2-2----------------|

e|-----|
B|-----|
G|-7---|
D|-7---|
A|-5---|
E|-----|
                                                                            ^
now it's just esy from here on out. any questions or anything jsut email me |
  :S
Comments