Sum 41 - No Reason Chords & Tabs

 

No Reason Chords & Tabs

Sum 41 Chords & Tabs

Version: 2 Type: Bass Tab 0 ratings
1 star 2 stars 3 stars 4 stars 5 stars
comments

No Reason Bass Tab

   
  ~~~Intro Part One~~~

Gb|-------------------------|----------------------4--7-|
Db|-------------------------|------------5---2-2--------|
Ab|-------3------------2--5-|--------3------------------|
Eb|-0-0------3---0-0--------|-0-0-----------------------|

  WAIT 2.5 BARS

Gb|-----------------------|
Db|-----------------------|
Ab|-3-----------------2-5-|
Eb|----3--00--00--00------|

  ~~~Intro Part Two~~~

Gb|-----------------------------------|    
Db|-----------------------------------|    
Ab|-------------------3-3-3-3---------|
Eb|-0-0-0-0-0-0-0-0-0---------3-3-3-3-|    
				     
Gb|-----------------------------------|    |
Db|-----------------------------------| 2x |
Ab|-------------------2-2-2-2-5-5-5-5-|    |
Eb|-0-0-0-0-0-0-0-0-0-----------------|    |

  ~~~Verse~~~

Gb|-------------------------------|    |
Db|-------------------------5-4---| 8x |
Ab|---------3-3-2-2-------------5-|    |
Eb|-0-0-0-0---------0-0-0-0-------|    |

  ~~~Chorus~~~

Gb|-------------------------------------------------------------------|
Db|-------------------------------------------------------------------|
Ab|-3-3-3-3-3-3-3-3-3-----------------5-5-5-5-5-5-5-5-5-5-5-5-5-5-5-5-|
Eb|-------------------3-3-3-3-3-3-3-3---------------------------------|

Gb|-------------------------------------------------------------------|
Db|-------------------------------------------------------------------|
Ab|-3-3-3-3-3-3-3-3-3-----------------5-5-5-5-5-5-5-5-7-7-7-7-7-7-7-7-|
Eb|-------------------3-3-3-3-3-3-3-3---------------------------------|

  WAIT 1 BAR

 ~~~Verse~~~

Gb|-------------------------------|    |
Db|-------------------------5-4---| 8x |
Ab|---------3-3-2-2-------------5-|    |
Eb|-0-0-0-0---------0-0-0-0-------|    |
[ Tab from: http://www.guitartabs.cc/tabs/s/sum_41/no_reason_btab_ver_2.html ]
  ~~~Chorus~~~

Gb|-------------------------------------------------------------------|
Db|-------------------------------------------------------------------|
Ab|-3-3-3-3-3-3-3-3-3-----------------5-5-5-5-5-5-5-5-5-5-5-5-5-5-5-5-|
Eb|-------------------3-3-3-3-3-3-3-3---------------------------------|

Gb|-------------------------------------------------------------------|
Db|-------------------------------------------------------------------|
Ab|-3-3-3-3-3-3-3-3-3-----------------5-5-5-5-5-5-5-5-7-7-7-7-7-7-7-7-|
Eb|-------------------3-3-3-3-3-3-3-3---------------------------------|

  ~~~Bridge~~~

Gb|-----------------|    |
Db|-----------------| 2x |
Ab|-7-5-3---2-5-2-5-|    |
Eb|-------3---------|    |

  WAIT 2.5 BARS

Gb|-----------------------|
Db|-----------------------|
Ab|-3-----------------2-5-|
Eb|----3--00--00--00------|

Gb|----------------------|    |
Db|----------------------| 2x |
Ab|-------3----------2-5-|    |
Eb|-0-------3--0---------|    |

Gb|-----------------|    |
Db|-----------------| 2x |
Ab|-5-5-5-5-5-5-5-5-|    |
Eb|-----------------|    |

  ~~~Chorus~~~

Gb|-------------------------------------------------------------------|
Db|-------------------------------------------------------------------|
Ab|-3-3-3-3-3-3-3-3-3-----------------5-5-5-5-5-5-5-5-5-5-5-5-5-5-5-5-|
Eb|-------------------3-3-3-3-3-3-3-3---------------------------------|

Gb|-------------------------------------------------------------------|
Db|-------------------------------------------------------------------|
Ab|-3-3-3-3-3-3-3-3-3-----------------5-5-5-5-5-5-5-5-7-7-7-7-7-7-7-7-|
Eb|-------------------3-3-3-3-3-3-3-3---------------------------------|

  ~~~Outro~~~

Gb|-----------|
Db|-----------|
Ab|-3---3---3-|
Eb|-----------|
Comments