Sum 41 - No Brains Chords & Tabs

 

No Brains Chords & Tabs

Sum 41 Chords & Tabs

Version: 2 Type: Tab 0 ratings
1 star 2 stars 3 stars 4 stars 5 stars
comments

No Brains Tab

Artist : Sum 41
Album : Does This Look Infected
Track : No Brains
Tabbed By Mark Brown

Gtr 1 (dist)
Intro/Verse
e|---------------------------------------------------------------|
B|---------------------------------------------------------------|
G|---------------------------------------------------------------|
D|---------------------------------------------------------------|
A|--4--4--4--2--4--4----0--0--0--0--0--0--0--7--7--7--7--7-/-----|
D|--4--4--4--2--4--4----0--0--0--0--0--0--0--7--7--7--7--7-/-----|

Gtr 1&2
e|---------------------------------------------------------------|
B|---------------------------------------------------------------|
G|---------------------------------------------------------------|
D|---------------------------------------------------------------|
A|-0--0--0--0--2--2--2--2--4--4--4--4--7--7--7--7----------------|
D|-0--0--0--0--2--2--2--2--4--4--4--4--7--7--7--7----------------|

Chorus
Gtr 1&2
e|---------------------------------------------------------------|
B|---------------------------------------------------------------|
G|---------------------------------------------------------------|
D|--------------7--7--7--7--9--9--9--9---------------------------|
A|--4--4--4--4--5--5--5--5--7--7--7--7--7--6---------------------|
D|--4--4--4--4--------------------------7--6---------------------|

Interlude
Gtrs 1&2
      P.M----|          P.M-----|      P.M------|
e|---------------------------------------------------------------|
B|---------------------------------------------------------------|
G|---------------------------------------------------------------|
D|---------------------------------------------------------------|
A|--4-----------4--4--4-----------4--4---------------------------|
D|--4--4-4-4-4--4--4--4--4-4-4-4--4--4--4-4-4-4-4----------------|


e|---------------------------------------------------------------|
B|---------------------------------------------------------------|
G|---------------------------------------------------------------|
D|---------------------------------------------------------------|
A|--4--4--4--2--4--4----0--0--0--0--0--0--0--7--7--7--7--7-/-----|
D|--4--4--4--2--4--4----0--0--0--0--0--0--0--7--7--7--7--7-/-----|

Interlude
Gtr 1
   P.M--|     P.M--------|
e|---------------------------------------------------------------|
B|---------------------------------------------------------------|
G|---------------------------------------------------------------|
D|---------------------------------------------------------------|
A|-4--4--4-----4-4-4-4--4----------------------------------------|
D|-4--4--4-----4-4-4-4--4----------------------------------------|

 
Gtr 1&2
e|---------------------------------------------------------------|
B|---------------------------------------------------------------|
G|---------------------------------------------------------------|
D|---------------------------------------------------------------|
A|-0--0--0--0--2--2--2--2--4--4--4--4--7--7--7--7----------------|
D|-0--0--0--0--2--2--2--2--4--4--4--4--7--7--7--7----------------|
[ Tab from: http://www.guitartabs.cc/tabs/s/sum_41/no_brains_tab_ver_2.html ]
Chorus
Gtr 1&2
e|---------------------------------------------------------------|
B|---------------------------------------------------------------|
G|---------------------------------------------------------------|
D|--------------7--7--7--7--9--9--9--9---------------------------|
A|--4--4--4--4--5--5--5--5--7--7--7--7--7--6---------------------|
D|--4--4--4--4--------------------------7--6---------------------|        
 
Interlude
Gtr 1&2
                            P.M---|   P.M---|   P.M---|
e|---------------------------------------------------------------|
B|---------------------------------------------------------------|
G|---------------------------------------------------------------|
D|---------------------------------------------------------------|
A|--0--0--0--0--2--2--2--2--4---------4---------4---------7--7---|
D|--0--0--0--0--2--2--2--2--4--4-4-4--4--4-4-4--4--4-4-4--7--6---|


e|---------------------------------------------------------------|
B|---------------------------------------------------------------|
G|---------------------------------------------------------------|
D|---------------------------------------------------------------|
A|--0--0--0--0--2--2--2--2--4--4--4--4--2--2--2--2---------------|
D|--0--0--0--0--2--2--2--2--4--4--4--4--2--2--2--2---------------|

Solo
Gtr 1
For this i dont no what effect it is? but when i find out i will let you no
e|----------------------------------------------------------------------------------|
B|-12p10p9-12p10p9-12p10p9-12p10p9-12p10p9-12p10p9-12p10p9-12p10p9-12b14-12--9--12--|
G|----------------------------------------------------------------------------------|
D|----------------------------------------------------------------------------------|
A|----------------------------------------------------------------------------------|
D|----------------------------------------------------------------------------------|
                          
             pitch bend whammy effect or some sort????...............................
e|-----------------------------------------------------------------------------------|
B|-9h12p9----------------------------------------------------------------------------|
G|----------11--9--11--9--11b13-11--9~-11--9--11--9--11--9--11--9--11--9--11--9--11--|
D|-----------------------------------------------------------------------------------|
A|-----------------------------------------------------------------------------------|
D|-----------------------------------------------------------------------------------|
..............................................
e|------------------------------------------------------------------------|
B|-----------------------------------12~~~~~~~----------------------------|
G|--12b14-12--9--12---9h12p9--11--9---------------------------------------|
D|------------------------------------------------------------------------|
A|------------------------------------------------------------------------|
D|------------------------------------------------------------------------|

p.m----------------------------------------------|
e|---------------------------------------------------------------|
B|---------------------------------------------------------------|
G|---------------------------------------------------------------|
D|---------------------------------------------------------------|
A|--4--4--4--4--0--0--0--0--7--7--7--7--2--2--2--2---------------|
D|--4--4--4--4--0--0--0--0--7--7--7--7--2--2--2--2---------------|
Comments