Sum 41 - No Brains Chords & Tabs

 

No Brains Chords & Tabs

Sum 41 Chords & Tabs

Version: 1 Type: Tab 0 ratings
1 star 2 stars 3 stars 4 stars 5 stars
comments

No Brains Tab

Song: No Brain
Artist: Sum 41
Album: Does This Look Infected?


pm = palm muted
b  = bend (note bend will produce shown in brackets)
r  = release
h  = hammer on
p  = pull off
/  = slide up neck (low to high)

Verse
|---------------------------------------------------------|
|---------------------------------------------------------|
|---------------------------------------------------------|
|-4-4-4-4-4--4---0-0-0-0-0-0---7-7-7-7--7-----2-2-2-2-2-2-|
|-4-4-4-4-4--4---0-0-0-0-0-0---7-7-7-7--7-----2-2-2-2-2-2-|
|-4-4-4-4-4--4---0-0-0-0-0-0---7-7-7-7--7-----2-2-2-2-2-2-|

Pre-Chorus
|---------------------------------|
|---------------------------------|
|---------------------------------|
|-0-------2-------4-------7---9---|
|-0-------2-------4-------7---9---|
|-0-------2-------4-------7---9---|

Chorus
|-----------------------------------------------------------------|
|-----------------------------------------------------------------|
|-----------------------------------------------------------------|
|-4-4-4-4-4-4-4-4-2-2-2-2-0-0-0-0-2-2-2-2-0-0-0-0-9-9-9-9-7-7-7-7-|
|-4-4-4-4-4-4-4-4-2-2-2-2-0-0-0-0-2-2-2-2-0-0-0-0-9-9-9-9-7-7-7-7-|
|-4-4-4-4-4-4-4-4-2-2-2-2-0-0-0-0-2-2-2-2-0-0-0-0-9-9-9-9-7-7-7-7-|

Chorus 2
|---------------------------------------------------------|
|---------------------------------------------------------|
|---------------------------------------------------------|
|-4-xxx-4-xxx-4-4-xxx-4-xxx-4-4-xxx-4-xxx-4-4-xxx-4-xxx-4-|
|-4-xxx-4-xxx-4-4-xxx-4-xxx-4-4-xxx-4-xxx-4-4-xxx-4-xxx-4-|
|-4-xxx-4-xxx-4-4-xxx-4-xxx-4-4-xxx-4-xxx-4-4-xxx-4-xxx-4-|

Verse 2
|---------------------------------------|
|---------------------------------------|
|---------------------------------------|
|-4-4-4---4-4-4-4-4---4-4-4---4-4-4-4-4-|
|-4-4-4---4-4-4-4-4---4-4-4---4-4-4-4-4-|
|-4-4-4---4-4-4-4-4---4-4-4---4-4-4-4-4-|
pm. . .   . . . . .   . . .   . . . . . 

Chorus 3
|---------------------------------------------|
|---------------------------------------------|
|---------------------------------------------|
|-0-0-0-0-2-2-2-2-4-xxx-4-xxx-4-xxx-4-xxx-7-2-|
|-0-0-0-0-2-2-2-2-4-xxx-4-xxx-4-xxx-4-xxx-7-2-|
|-0-0-0-0-2-2-2-2-4-xxx-4-xxx-4-xxx-4-xxx-7-2-|
[ Tab from: http://www.guitartabs.cc/tabs/s/sum_41/no_brains_tab.html ]
Chorus 4
|------------------------------------------------------------------|
|------------------------------------------------------------------|
|------------------------------------------------------------------|
|-0-0-0-0-2-2-2-2-4-4-4-4-7-7-7-7-0-0-0-0-2-2-2-2-4444444444444444-|
|-0-0-0-0-2-2-2-2-4-4-4-4-7-7-7-7-0-0-0-0-2-2-2-2-4444444444444444-|
|-0-0-0-0-2-2-2-2-4-4-4-4-7-7-7-7-0-0-0-0-2-2-2-2-4444444444444444-|
pm                                                ................

Solo
|------------------------------------------|
|-1099910999129991099912999109991299910999-|
|------------------------------------------|
|------------------------------------------|
|------------------------------------------|
|------------------------------------------|

|----------------------------------------------------|
|----------------------------------------------------|
|-12b(14)-14-10-9-10-9h10p9-11-9-11-9-11b(13)r11p9-9-|
|----------------------------------------------------|
|----------------------------------------------------|
|----------------------------------------------------|

|---------------------/19191919191919192121212121212121-|
|-------------------------------------------------------|
|-9-11-9-11-9-11-9-11-----------------------------------|
|-------------------------------------------------------|
|-------------------------------------------------------|
|-------------------------------------------------------|

|-21b(23)r21-16-19-16----16----16-19-21b(23)-|
|---------------------18----18---------------|
|--------------------------------------------|
|--------------------------------------------|
|--------------------------------------------|
|--------------------------------------------|

Bridge
|-----------------------------------------------------------------|
|-----------------------------------------------------------------|
|-----------------------------------------------------------------|
|-4-4-4-4-4-4-4-4-0-0-0-0-0-0-0-0-7-7-7-7-7-7-7-7-2-2-2-2-2-2-2-2-|
|-4-4-4-4-4-4-4-4-0-0-0-0-0-0-0-0-7-7-7-7-7-7-7-7-2-2-2-2-2-2-2-2-|
|-4-4-4-4-4-4-4-4-0-0-0-0-0-0-0-0-7-7-7-7-7-7-7-7-2-2-2-2-2-2-2-2-|
pm. . . . . . . . . . . . . . . . . . . . . . . . . . . . . . . .

Outro
|-----------------------------------------------|
|-----------------------------------------------|
|-----------------------------------------------|
|-0-0-0-0-2-2-2-2-4-xxx-4-xxx-4-xxx-4-xxx-4-4-4-|
|-0-0-0-0-2-2-2-2-4-xxx-4-xxx-4-xxx-4-xxx-4-4-4-|
|-0-0-0-0-2-2-2-2-4-xxx-4-xxx-4-xxx-4-xxx-4-4-4-|


----------
Song Order
----------
Verse        x 3
Pre-Chorus  
Chorus       x 2
Chorus 2    
Verse        x 2
Verse 2      x 2
Pre-Chorus  
Chorus       x 2
Chorus 3     x 2
Chorus 4    
Solo        
Bridge       x 6
Chorus       x 2
Chorus 3    
Outro
Comments