Sum 41 - Never Wake Up Chords & Tabs

 

Never Wake Up Chords & Tabs

Sum 41 Chords & Tabs

Version: 2 Type: Tab 0 ratings
1 star 2 stars 3 stars 4 stars 5 stars
comments

Never Wake Up Tab

          Artist: Sum 41
          Song: Never Wake Up
          C.D: All Killer No Filler
          Tabbed by: Chris Piesas
          
          
          
          
          
          Verse Guitar 1, 4 times
          
          e-------------------------------------------------------------------------------------
          B-------------------------------------------------------------------------------------
          G----------9--9-------6--6-----------------------------------------------------------
          D--6--6----9--9-------6--6------4--4--------------------------------------------------
          A--6--6----7--7-------4--4------4--4--------------------------------------------------
          E--4--4-------------------------2--2----------------------------------------------
          
          Verse Guitar 2, 2 times
          
          e-------------------------------------------------------------------------------------
          B-------------------------------------------------------------------------------------
          G-------------------------------------------------------------------------------------
          D-------6-6-6-6-6-6/8---4-4-----------------------------------------------------------
          A-------x-x-x-x-x-x/x---x-x----------------------------------------------------------
          E-------4-4-4-4-4-4/6---2-2-----------------------------------------------------------
          
          Chorus both guitars, 2 times
          
          e-------------------------------------------------------------------------------------
          B-------------------------------------------------------------------------------------
          G--------4--4--4--4-----------------------------------------7----------------------7--
          D--------4--4--4--4-------4--4--4--4-------2--2--2--2--2----7----2--2--2--2--2-----7--
          A--------2--2--2--2-------4--4--4--4-------2--2--2--2--2----5----2--2--2--2--2-----5--
          E-------------------------2--2--2--2-------0--0--0--0--0---------0--0--0--0--0--------
          Set Up
          
          Verse Guitar one, 4 times
          Verse Guitar two, 2 times (come in after guitar 1 has played riff twice)
          Chorus both guitars 2 times
          Verse Guitar one 4 times
          Verse Guitar two, 2 times (come in after guitar 1 has played riff twice)
          Chorus both guitars 4 times





[ Tab from: http://www.guitartabs.cc/tabs/s/sum_41/never_wake_up_tab_ver_2.html ]
Comments