Sum 41 - Never Wake Up Chords & Tabs

 

Never Wake Up Chords & Tabs

Sum 41 Chords & Tabs

Version: 1 Type: Tab 0 ratings
1 star 2 stars 3 stars 4 stars 5 stars
comments

Never Wake Up Tab

SUM 41 
NEVER WAKE UP          IF YOU HAVE ANY QUESTIONS OR COMMENTS
                           EMAIL ME.  grda41@aol.com

[ Tab from: http://www.guitartabs.cc/tabs/s/sum_41/never_wake_up_tab.html ]
----------------------------------------------------------------------
----------------------------------------------------------------------
-------------------6-6-6-------------------------------------------------
----6-6-6---2-2-2--6-6-6--4-4-4--------------------------------------------------
----6-6-6---2-2-2--4-4-4--4-4-4---------------------------------------------------
----4-4-4---0-0-0---------2-2-2-----------------------------------------------



----------------------------------------------------------------------
----------------------------------------------------------------------
----4-4-4-4------------------------7--------------------------------------
----4-4-4-4--4-4-4-4--2-2-2-2------7--2-2-2-2-----------------------------------------
----2-2-2-2--4-4-4-4--2-2-2-2------5--2-2-2-2------------------------------------------
-------------2-2-2-2--0-0-0-0---------0-0-0-0-------------------------------------


Thats basicly it

Comments