Sum 41 - Never Wake Up Chords & Tabs

 

Never Wake Up Chords & Tabs

Sum 41 Chords & Tabs

Version: 2 Type: Bass Tab 0 ratings
1 star 2 stars 3 stars 4 stars 5 stars
comments

Never Wake Up Bass Tab

   
NEVER WAKE UP (Bassline)
                              As recorded by Sum 41
                   (From the 2001 Album ALL KILLER NO FILLER)

Words and Music by Sum 41

Gtr I (E A D G) - 'Cone'

  Q=220
 4/4
  Gtr I
  W           E Q  E E Q  E   E Q  E E Q  E   E Q  E E Q  E   E Q  E E Q  E
|----------||---------------|---------------|---------------|-----------------|
|----------||---------------|---------------|---------------|-----------------|
|----------||--------7-7--7-|-4-4--4--------|--------7-7--7-|-4-4--4----------|
|----------||-4-4--4--------|--------2-2--2-|-4-4--4--------|--------2-2--2---|


  E Q  E E Q  E   E Q  E E Q  E   E Q  E E Q  E   E Q  E E Q  E
|---------------|---------------|---------------|---------------||
|---------------|---------------|---------------|---------------||
|--------7-7--7-|-4-4--4--------|--------7-7--7-|-4-4--4--------||
|-4-4--4--------|--------2-2--2-|-4-4--4--------|--------2-2--2-||


  $
  E E E E E E E E   E E E E E E E E   E E E E E Q  E   E E E E E Q  E
|-----------------|-----------------|----------------|----------------|
|-----------------|-----------------|----------------|----------------|
|-2-2-2-2-2-2-2-2-|-----------------|-----------5----|-----------5----|
|-----------------|-2-2-2-2-2-2-2-2-|-0-0-0-0-0----0-|-0-0-0-0-0----0-|

[ Tab from: http://www.guitartabs.cc/tabs/s/sum_41/never_wake_up_btab_ver_2.html ]
                                            To Coda
  E E E E E E E E   E E E E E E E E   E E E E E Q  E   E E E E E Q  E
|-----------------|-----------------|----------------|----------------||
|-----------------|-----------------|----------------|----------------||
|-2-2-2-2-2-2-2-2-|-----------------|-----------5----|-----------5----||
|-----------------|-2-2-2-2-2-2-2-2-|-0-0-0-0-0----0-|-0-0-0-0-0----0-||


  E Q  E E Q  E   E Q  E E Q  E   E Q  E E Q  E   E Q  E E Q  E
|---------------|---------------|---------------|---------------|
|---------------|---------------|---------------|---------------|
|--------7-7--7-|-4-4--4--------|--------7-7--7-|-4-4--4--------|
|-4-4--4--------|--------2-2--2-|-4-4--4--------|--------2-2--2-|


                                                  D.S. al Coda
  E Q  E E Q  E   E Q  E E Q  E   E Q  E E Q  E   E Q  E E Q  E
|---------------|---------------|---------------|---------------||
|---------------|---------------|---------------|---------------||
|--------7-7--7-|-4-4--4--------|--------7-7--7-|-4-4--4--------||
|-4-4--4--------|--------2-2--2-|-4-4--4--------|--------2-2--2-||


  &
  H     H       E E E E E E E E   E E E E E E E E
|-------------|-----------------|-----------------|
|-------------|-----------------|-----------------|
|-------------|-2-2-2-2-2-2-2-2-|-----------------|
|------17\----|-----------------|-2-2-2-2-2-2-2-2-|


  E E E E E Q  E   E E E E E Q  E   E E E E E E E E   E E E E E E E E
|----------------|----------------|-----------------|-----------------|
|----------------|----------------|-----------------|-----------------|
|-----------5----|-----------5----|-2-2-2-2-2-2-2-2-|-----------------|
|-0-0-0-0-0----0-|-0-0-0-0-0----0-|-----------------|-2-2-2-2-2-2-2-2-|


  E E E E E Q  E   E E E E E Q  E   W          Q  Q  H
|----------------|----------------|----------|------------*|
|----------------|----------------|----------|------------*|
|-----------5----|-----------5----|----------|-2----------*|
|-0-0-0-0-0----0-|-0-0-0-0-0----0-|----------|-0----------*|

-------------------------------------------------------------------------------
Comments