Sum 41 - My Direction Chords & Tabs

 

My Direction Chords & Tabs

Sum 41 Chords & Tabs

Version: 2 Type: Tab 0 ratings
1 star 2 stars 3 stars 4 stars 5 stars
comments

My Direction Tab

   
Guitarists:Deryck Whibley,Dave Baksh
Band:Sum 41
Album:Does This Look Infected?
Song:My Direction
Tuning:Drop D
(D-A-D-G-B-E)

/=slide


(Guitar 1 and Guitar 2)
Intro

E-------------
B-------------
G-------------
D-x-x-x-x-----
A-x-x-x-x-----
D-x-x-x-x-----

Main Riff
(Guitar 1 and Guitar 2)
E--------------------------------
B--------------------------------
G-------------3-3----------------    
D---3--1-1----3-3--3-3-----------
A---3--1-1----1-1--3-3-----------
D---3--1-1---------3-3-----------

E--------------------------------
B--------------------------------
G-------------3-3----------------    
D---3--1-1----3-3--3-3-----------
A---3--1-1----1-1--3-3-----------
D---3--1-1---------3-3---15/-----

E--------------------------------
B--------------------------------
G-------------3-3----------------    
D---3--1-1----3-3--3-3-----------
A---3--1-1----1-1--3-3-----------
D---3--1-1---------3-3-----------

E--------------------------------
B--------------------------------
G-------------3-3----------------    
D---3--1-1----3-3--3-3-----------
A---3--1-1----1-1--3-3-----------
D---3--1-1---------3-3-----------

Verse

(Guitar 1)
E------------------
B------------------
G------------------
D------------------
A--------------1-1-
D-3-3-3-3--1-1-----

(Guitar 2)
E---------------------------------------------
B---------------------------------------------
G-10-10--10/8/7/8-----------------------------
D--x--x---x/x/x/x-----------------------------   
A--8--8---8/6/5/6-----------------------------
D---------------------------------------------

(Guitar 1)

E--------------------------------
B--------------------------------
G--------------------------------
D--------------------------------
A------------------------1-1-1-1-
D-3-3-3-3-3-3-3-3-1-1-1-1--------
[ Tab from: http://www.guitartabs.cc/tabs/s/sum_41/my_direction_tab_ver_2.html ]
(Guitar 2)
E--------------------------------
B--------------------------------
G--------------------------------
D--------------------------------
A------------------------3-3-3-3-
D-3-3-3-3-3-3-3-3-5-5-5-5--------

Pre-Chorus

(Guitar 1)

E------------------
B------------------
G--------------3-3-
D-3-3-3---1-1--3-3-
A-3-3-3---1-1--1-1-
D-3-3-3---1-1------

(Guitar 1)
E-----------------------------
B-----------------------------
G--------------------3--------
D---3-3-3---------1--3--1-----  
A---3-3-3---------1--1--1-----
D---3-3-3---------1-----1-----

(Guitar 2)

E------------------------
B-2-2-3-2-2-3-2-3--------
G-3-3-3-3-3-3-3-3--------
D------------------------
A------------------------
E------------------------

(Guitar 2)

E----------------------------
B-3-3-2-3-3-2-3-2----3--3--3-
G-3-3-3-3-3-3-3-3----3--3--3-
D----------------------------
A----------------------------
D----------------------------

Bridge 

(Guitar 1)
E-----------------
B-----------------
G-10-10-10--------
D-10-10-10--------
A--8--8--8--------
D-----------------

(Guitar 1)
E------------------
B------------------
G--8--10--8-----8--
D--8--10--8--8--8-- 
A--6---8--6--8--6--
D------------8-----


(Guitar 1)  
E----------------------------------------------
B----------------------------------------------
G-10-10-10-10-10-10-10-10-10-10-10-10-10-10-10-
D--x--x--x--x--x--x--x--x--x--x--x--x--x--x--x-
A--8--8--8--8--8--8--8--8--8--8--8--8--8--8--8-
D----------------------------------------------

(Guitar 2)  

E-------------------------------
B-------------------------------
G-10-10---8--10---8-----8-------
D-10-10---8--10---8-8---8-8-8---  
A--8--8---6---8---6-8---6-8-8---
D-------------------8-----8-8---

(Guitar 1 and Guitar 2)
E--------------------------
B--------------------------
G---5---3--/5--5-5-5-5-5-5-
D---5---3--/5--5-5-5-5-5-5-
A---3---1--/3--3-3-3-3-3-3-
D--------------------------

(Guitar 1 and Guitar 2)
E-------------------------
B-------------------------
G---5---3---5----/3-------
D---5---3---5----/3---3---  
A---3---1---3----/1---3---
D---------------------3---
Comments