Sum 41 - Mr Amsterdam Chords & Tabs

 

Mr Amsterdam Chords & Tabs

Sum 41 Chords & Tabs

Version: 2 Type: Tab 0 ratings
1 star 2 stars 3 stars 4 stars 5 stars
comments

Mr Amsterdam Tab

Intro
Gtr1
e|-------------------------------------------------------------------------|
B|-------------------------------------------------------------------------|
G|---------------------------------------11---10----8---13---11---10-------|
D|--1----------1--1--1--1------1--1--1----X----X----X----X----X----X-------|
A|--1----------1--1--1--1------1--1--1----9----8----6---11----9----8-------|
E|-------------------------------------------------------------------------|


Intro
Gtr2
e|--------------------------------------------------------------------|
B|--------------------------------------------------------------------|
G|--------------------------------------------------------------------|
D|--1----------1--1--1--1------1--1--1----8----3----------6--6--7-----|
A|--1----------1--1--1--1------1--1--1----6----1-----4----4--4--5-----|
E|---------------------------------------------------2----------------|

Main Riff
Gtr1
e|--------------------------------------------------------------------|
B|--------------------------------------------------------------------|
G|--8--8--11-10--8--7--7-11-10--8--/--13-11-10-11--/11-13-11-10-11-10-|
D|--X--X--X---X--X--X--X--X--X--X--/---X--X--X--X--/-X--X--X--X--X--X-|
A|--6--6--9---8--6--5--5--9--8--6--/--11--9--8--9--/-9-11--9--8--9--8-|
E|--------------------------------------------------------------------|

Gtr2
e|--------------------------------------------------------------------|
B|--------------------------------------------------------------------|
G|--------------------------------------------------------------------|
D|---8--8--8--8---3--3--3--3----------------6--6--6--6----------------|
A|---6--6--6--6---1--1--1--1---4--4--4--4---4--4--4--4----------------|
E|-----------------------------2--2--2--2-----------------------------|


Verse
Gtr1
e|----------------------------------------------------------------------|
B|----------------------------------------------------------------------|
G|--8-/-----------------------------------------------------------------|
D|--X-/-----------------------------------------------------------------|
A|--6-/-----------------------------------------------------------------|
E|----------------------------------------------------------------------|

Gtr2
  p.m---------------------------|       p.m----------------------|
e|-----------------------------------------------------------------------|
B|-----------------------------------------------------------------------|
G|-----------------------------------------------------------------------|
D|-----------------------------------------------------------------------|
A|--6-6-6-6-6-6-6-6-6-6-6-6-6-6-6--4--6-6-6-6-6-6-6-6-6-6-6-6-6-6-4--6---|
E|-----------------------------------------------------------------------|

   p.m-------------------------------------------------------------|
e|--------------------------------------------------------------------|
B|--------------------------------------------------------------------|
G|--------------------------------------------------------------------|
D|--------------------------------------------------------------------|
A|--6-6-6-6-6-6-6-6-4-4-4-4-4-4-4-4-2-2-2-2-2-2-2-2-------------------|
E|--------------------------------------------------2-2-2-2-2-2-2-2---|

Gtrs 1&2
e|---------------------------------------------------------------------|
B|---------------------------------------------------------------------|
G|---------------------------------------------------------------------|
D|-8-8--8-8-8--11-11--11-11-11-----------------------------------------|
A|-6-6--6-6-6---9--9---9--9--9---9-9--9-9-9--11-11--11-11-11-----------|
E|-------------------------------7-7--7-7-7---9--9---9--9--9-----------|

     p.m---------|        p.m-----------|
e|---------------------------------------------------------------------|
B|---------------------------------------------------------------------|
G|---------------------------------------------------------------------|
D|-1---------------1---1-----------------1------------------6--6--6--6-|
A|-1---------------1---1-----------------1---4--4--4--4--4--4--4--4--4-|
E|----1-1-1-1-1-1---------1-1-1-1-1-1-1------2--2--2--2--2-------------|

Chorus
Gtrs 1 &2

Gtrs 1&2
      p.m--|             p.m--|
e|-----------------------------------------------|
B|-----------------------------------------------|
G|--8--------------------------------------------|
D|--8--8-8-8--6--6-6--4--4-4-4--6--6-6-----------|
A|--6--6-6-6--4--4-4--2--2-2-2--4--4-4-----------|
D|-----------------------------------------------|X2


Main Riff
Gtr1
e|--------------------------------------------------------------------|
B|--------------------------------------------------------------------|
G|--8--8--11-10--8--7--7-11-10--8--/--13-11-10-11--/11-13-11-10-11-10-|
D|--X--X--X---X--X--X--X--X--X--X--/---X--X--X--X--/-X--X--X--X--X--X-|
A|--6--6--9---8--6--5--5--9--8--6--/--11--9--8--9--/-9-11--9--8--9--8-|
E|--------------------------------------------------------------------|

Gtr2
e|--------------------------------------------------------------------|
B|--------------------------------------------------------------------|
G|--------------------------------------------------------------------|
D|---8--8--8--8---3--3--3--3----------------6--6--6--6----------------|
A|---6--6--6--6---1--1--1--1---4--4--4--4---4--4--4--4----------------|
E|-----------------------------2--2--2--2-----------------------------|


Verse
Gtr1
e|----------------------------------------------------------------------|
B|----------------------------------------------------------------------|
G|--8-/-----------------------------------------------------------------|
D|--X-/-----------------------------------------------------------------|
A|--6-/-----------------------------------------------------------------|
E|----------------------------------------------------------------------|

Gtr2
  p.m---------------------------|       p.m----------------------|
e|-----------------------------------------------------------------------|
B|-----------------------------------------------------------------------|
G|-----------------------------------------------------------------------|
D|-----------------------------------------------------------------------|
A|--6-6-6-6-6-6-6-6-6-6-6-6-6-6-6--4--6-6-6-6-6-6-6-6-6-6-6-6-6-6-4--6---|
E|-----------------------------------------------------------------------|
[ Tab from: http://www.guitartabs.cc/tabs/s/sum_41/mr_amsterdam_tab_ver_2.html ]
   p.m-------------------------------------------------------------|
e|--------------------------------------------------------------------|
B|--------------------------------------------------------------------|
G|--------------------------------------------------------------------|
D|--------------------------------------------------------------------|
A|--6-6-6-6-6-6-6-6-4-4-4-4-4-4-4-4-2-2-2-2-2-2-2-2-------------------|
E|--------------------------------------------------2-2-2-2-2-2-2-2---|

Gtrs 1&2
e|---------------------------------------------------------------------|
B|---------------------------------------------------------------------|
G|---------------------------------------------------------------------|
D|-8-8--8-8-8--11-11--11-11-11-----------------------------------------|
A|-6-6--6-6-6---9--9---9--9--9---9-9--9-9-9--11-11--11-11-11-----------|
E|-------------------------------7-7--7-7-7---9--9---9--9--9-----------|

     p.m---------|        p.m-----------|
e|---------------------------------------------------------------------|
B|---------------------------------------------------------------------|
G|---------------------------------------------------------------------|
D|-1---------------1---1-----------------1------------------6--6--6--6-|
A|-1---------------1---1-----------------1---4--4--4--4--4--4--4--4--4-|
E|----1-1-1-1-1-1---------1-1-1-1-1-1-1------2--2--2--2--2-------------|

Chorus
Gtrs 1 &2

Gtrs 1&2
      p.m--|             p.m--|
e|-----------------------------------------------|
B|-----------------------------------------------|
G|--8--------------------------------------------|
D|--8--8-8-8--6--6-6--4--4-4-4--6--6-6-----------|
A|--6--6-6-6--4--4-4--2--2-2-2--4--4-4-----------|
E|-----------------------------------------------|X2

Interlude
Gtr 1
      p.m----| p.m----|  p.m--|            p.m---|       p.m-|     
e|---------------------------------------------------------------------------
B|---------------------------------------------------------------------------
G|---------------------------------------------------------------------------
D|-1--------------------------------1----------1---1------------------1------
A|-1--------------------------7-6-4-1----------1---1---------7--6--4--1------
E|---1-1-1-1--1-1-1-1--1-1-1--5-4-2----1-1-1-1-------1-1-1-1-5--4--2---------

Gtr 2
      p.m----| p.m----|  p.m--|            p.m---|       p.m-|     
e|---------------------------------------------------------------------------
B|---------------------------------------------------------------------------
G|---------------------------------------------------------------------------
D|-1--------------------------------1----------1---1------------------1------
A|-1--------------------------7-6-4-1----------1---1---------7--6--4--1------
E|---1-1-1-1--1-1-1-1--1-1-1--5-4-2----1-1-1-1-------1-1-1-1-5--4--2---------

Gtr1
e|-------------------------------------------------------------------|
B|-------------------------------------------------------------------|
G|-------------------------------------------------------------------|
D|------------1---1----1----1----------------------------------------|
A|------------1---1----1----1----------------------------------------|
E|--5--4--2----------------------------------------------------------|

Gtr2
e|-------------------------------------------------------------------|
B|-------------------------------------------------------------------|
G|-------------------------------------------------------------------|
D|------------1---1----1----1----------------------------------------|
A|------------1---1----1----1----------------------------------------|
E|-------------------------------------------------------------------|

Gtr1
e|-----------------------------------------------------------------------|
B|-----------------------------------------------------------------------|
G|------------------------------------------------------------6--6--7----|
D|--1--1--1--1--1--1---------------------1--1--1--1--1--1--1--x--x--x----|
A|--1--1--1--1--1--1---------7--6---4----1--1--1--1--1--1--1--4--4--5----|
E|---------------------------5--4---2------------------------------------|

Gtr2
e|-----------------------------------------------------------------------|
B|-----------------------------------------------------------------------|
G|------------------------------------------------------------6--6--7----|
D|--8--8--8--8--8--8---------------------8--8--8--8--8--8--8--x--x--x----|
A|--6--6--6--6--6--6---------7--6---4----6--6--6--6--6--6--6--4--4--5----|
E|---------------------------5--4---2------------------------------------|

Gtrs1&2
  p.m------|        p.m------|
e|--------------------------------------------------------------------|
B|--------------------------------------------------------------------|
G|--------------------------------------------------------------------|
D|-----------6---6--------------6---7---------------------------------|
A|-----------4---4--------------4---5---------------------------------|
E|-1XXXXXXXX----------1XXXXXXXX---------------------------------------|

Main Riff
Gtr1
e|--------------------------------------------------------------------|
B|--------------------------------------------------------------------|
G|--8--8--11-10--8--7--7-11-10--8--/--13-11-10-11--/11-13-11-10-11-10-|
D|--X--X--X---X--X--X--X--X--X--X--/---X--X--X--X--/-X--X--X--X--X--X-|
A|--6--6--9---8--6--5--5--9--8--6--/--11--9--8--9--/-9-11--9--8--9--8-|
E|--------------------------------------------------------------------|

Gtr2
e|--------------------------------------------------------------------|
B|--------------------------------------------------------------------|
G|--------------------------------------------------------------------|
D|---8--8--8--8---3--3--3--3----------------6--6--6--6----------------|
A|---6--6--6--6---1--1--1--1---4--4--4--4---4--4--4--4----------------|
E|-----------------------------2--2--2--2-----------------------------|

Gtr1
e|----------------------------------------------------------------------|
B|----------------------------------------------------------------------|
G|--8-/-----------------------------------------------------------------|
D|--X-/-----------------------------------------------------------------|
A|--6-/-----------------------------------------------------------------|
E|----------------------------------------------------------------------|

Gtr2
e|--------------------------------------------------------------------|
B|--------------------------------------------------------------------|
G|--------------------------------------------------------------------|
D|-1---1---1---1---1-1-1---2------------------------------------------|
A|-1---1---1---1---1-1-1---2------------------------------------------|
E|-------------------------0------------------------------------------|
Comments