Sum 41 - Mr Amsterdam Chords & Tabs

 

Mr Amsterdam Chords & Tabs

Sum 41 Chords & Tabs

Version: 1 Type: Tab 0 ratings
1 star 2 stars 3 stars 4 stars 5 stars
comments

Mr Amsterdam Tab

Artist: Sum 41
Track : Mr Amsterdam
Album : Does This Look Infected
Tabbed By Mark Brown

Here we go, the dropped D version or mr amsterdam, i have also included
the backing guitar two for those who wish to use this song in there bands
Hope you like it!


Intro
Gtr1
e|-------------------------------------------------------------------------|
B|-------------------------------------------------------------------------|
G|---------------------------------------11--\-10--\--8--/-13--\-11--\-10--|
D|--1----------1--1--1--1------1--1--1----X--\--X--\--X--/--X--\--X--\--X--|
A|--1----------1--1--1--1------1--1--1----9--\--8--\--6--/-11--\--9--\--8--|
D|--1----------1--1--1--1------1--1--1----0--------------------------------|

Intro
Gtr2
e|--------------------------------------------------------------------|
B|--------------------------------------------------------------------|
G|----------------------------------------8----3----------6--6--7-----|
D|--1----------1--1--1--1------1--1--1----8----3-----4----6--6--7-----|
A|--1----------1--1--1--1------1--1--1----6----1-----4----4--4--5-----|
D|--1----------1--1--1--1------1--1--1---------------4----------------|

Main Riff
Gtr1
e|--------------------------------------------------------------------|
B|--------------------------------------------------------------------|
G|--8--8--11-10--8---7--7-11-10--8--/---13-11-10-11--/-13-10-11-10----|
D|--X--X--X---X--X---X--X--X--X--X--/----X--X--X--X--/--X--X--X--X----|
A|--6--6--9---8--6---5--5--9--8--6--/---11--9--8--9--/-11--8--9--8----|
D|--------------------------------------------------------------------|

Gtr2
e|--------------------------------------------------------------------|
B|--------------------------------------------------------------------|
G|---8--8--8--8---3--3--3--3----------------6--6--6--6----------------|
D|---8--8--8--8---3--3--3--3---4--4--4--4---6--6--6--6----------------|
A|---6--6--6--6---1--1--1--1---4--4--4--4---4--4--4--4----------------|
D|-----------------------------4--4--4--4-----------------------------|

Verse
Gtr1
e|----------------------------------------------------------------------|
B|----------------------------------------------------------------------|
G|--8-/-----------------------------------------------------------------|
D|--X-/-----------------------------------------------------------------|
A|--6-/-----------------------------------------------------------------|
D|----------------------------------------------------------------------|

Gtr2
  p.m---------------------------|       p.m----------------------|
e|-----------------------------------------------------------------------|
B|-----------------------------------------------------------------------|
G|-----------------------------------------------------------------------|
D|-----------------------------------------------------------------------|
A|--6-6-6-6-6-6-6-6-6-6-6-6-6-6-6--4--6-6-6-6-6-6-6-6-6-6-6-6-6-6-4--6---|
D|-----------------------------------------------------------------------|

   p.m-------------------------------------------------------------|
e|--------------------------------------------------------------------|
B|--------------------------------------------------------------------|
G|--------------------------------------------------------------------|
D|--------------------------------------------------------------------|
A|--6-6-6-6-6-6-6-6-4-4-4-4-4-4-4-4-2-2-2-2-2-2-2-2-------------------|
D|--------------------------------------------------4-4-4-4-4-4-4-4---|

Gtrs 1&2
      p.m--|             p.m--|
e|-----------------------------------------------|
B|------------5--5-5-----------------------------|
G|--8---------6--6-6--4---------6--6-6-----------|
D|--8--8-8-8--6--6-6--4--4-4-4--6--6-6-----------|
A|--6--6-6-6--4--4-4--2--2-2-2--4--4-4-----------|
D|-----------------------------------------------|

     p.m---------|        p.m-----------|
e|---------------------------------------------------------------------------|
B|---------------------------------------------------------------------------|
G|---------------------------------------------------------------6--6--6--6--|
D|-1---------------1---1-----------------1-------4--4--4--4--4---6--6--6--6--|
A|-1---------------1---1-----------------1-------4--4--4--4--4---4--4--4--4--|
D|-1--1-1-1-1-1-1--1---1--1-1-1-1-1-1-1--1-------4--4--4--4--4---------------|

Chorus
Gtrs 1 &2

Gtrs 1&2
      p.m--|             p.m--|
e|-----------------------------------------------|
B|------------5--5-5-----------------------------|
G|--8---------6--6-6--4---------6--6-6-----------|
D|--8--8-8-8--6--6-6--4--4-4-4--6--6-6-----------|
A|--6--6-6-6--4--4-4--2--2-2-2--4--4-4-----------|
D|-----------------------------------------------|

     p.m--|               p.m-|
e|-------------------------------------------------|
B|-------------------------------------------------|
G|-8---------8--8--8----4--------6---6---6---------|
D|-8--8-8-8--8--8--8----4--4-4---6---6---6---------|
A|-6--6-6-6--6--6--6----2--2-2---4---4---4---------|
D|-------------------------------------------------|

Main Riff
Gtr1
e|--------------------------------------------------------------------|
B|--------------------------------------------------------------------|
G|--8--8--11-10--8---7--7-11-10--8--/---13-11-10-11--/-13-10-11-10----|
D|--X--X--X---X--X---X--X--X--X--X--/----X--X--X--X--/--X--X--X--X----|
A|--6--6--9---8--6---5--5--9--8--6--/---11--9--8--9--/-11--8--9--8----|
D|--------------------------------------------------------------------|

Gtr2
e|--------------------------------------------------------------------|
B|--------------------------------------------------------------------|
G|---8--8--8--8---3--3--3--3----------------6--6--6--6----------------|
D|---8--8--8--8---3--3--3--3---4--4--4--4---6--6--6--6----------------|
A|---6--6--6--6---1--1--1--1---4--4--4--4---4--4--4--4----------------|
D|-----------------------------4--4--4--4-----------------------------|

Gtr1
e|----------------------------------------------------------------------|
B|----------------------------------------------------------------------|
G|--8-/-----------------------------------------------------------------|
D|--X-/-----------------------------------------------------------------|
A|--6-/-----------------------------------------------------------------|
D|----------------------------------------------------------------------|
[ Tab from: http://www.guitartabs.cc/tabs/s/sum_41/mr_amsterdam_tab.html ]
Gtr2
  p.m---------------------------|       p.m----------------------|
e|-----------------------------------------------------------------------|
B|-----------------------------------------------------------------------|
G|-----------------------------------------------------------------------|
D|-----------------------------------------------------------------------|
A|--6-6-6-6-6-6-6-6-6-6-6-6-6-6-6--4--6-6-6-6-6-6-6-6-6-6-6-6-6-6-4--6---|
D|-----------------------------------------------------------------------|

   p.m-------------------------------------------------------------|
e|--------------------------------------------------------------------|
B|--------------------------------------------------------------------|
G|--------------------------------------------------------------------|
D|--------------------------------------------------------------------|
A|--6-6-6-6-6-6-6-6-4-4-4-4-4-4-4-4-2-2-2-2-2-2-2-2-------------------|
D|--------------------------------------------------4-4-4-4-4-4-4-4---|

e|---------------------------------------|
B|---------------------------------------|
G|------8---6---6---6---4----------------|
D|-1----8---6---6---6---4----4-----------|
A|-1----6---4---4---4---2----4-----------|
D|-1-------------------------4-----------|

     p.m---------|        p.m-----------|
e|---------------------------------------------------------------------------|
B|---------------------------------------------------------------------------|
G|---------------------------------------------------------------6--6--6--6--|
D|-1---------------1---1-----------------1-------4--4--4--4--4---6--6--6--6--|
A|-1---------------1---1-----------------1-------4--4--4--4--4---4--4--4--4--|
D|-1--1-1-1-1-1-1--1---1--1-1-1-1-1-1-1--1-------4--4--4--4--4---------------|

Chorus
Gtrs 1 &2

Gtrs 1&2
      p.m--|             p.m--|
e|-----------------------------------------------|
B|------------5--5-5-----------------------------|
G|--8---------6--6-6--4---------6--6-6-----------|
D|--8--8-8-8--6--6-6--4--4-4-4--6--6-6-----------|
A|--6--6-6-6--4--4-4--2--2-2-2--4--4-4-----------|
D|-----------------------------------------------|

     p.m--|               p.m-|
e|-------------------------------------------------|
B|-------------------------------------------------|
G|-8---------8--8--8----4--------6---6---6---------|
D|-8--8-8-8--8--8--8----4--4-4---6---6---6---------|
A|-6--6-6-6--6--6--6----2--2-2---4---4---4---------|
D|-------------------------------------------------|

Interlude
Gtr 1
      p.m----| p.m----|  p.m--|            p.m---|       p.m-|     
e|-------------------------------------------------------------------------------------|
B|-------------------------------------------------------------------------------------|
G|-------------------------------------------------------------------------------------|
D|-1---------------------------7--6--4--1----------1---1-------7--6--4--1------1---1---|
A|-1---------------------------7--6--4--1----------1---1-------7--6--4--1------1---1---|
D|-1--1-1-1-1--1-1-1-1--1-1-1--7--6--4--1--1-1-1-1-1---1-1-1-1-7--6--4--1------1---1---|

Gtr 2
e|--------------------------------------------------------------------------------|
B|--------------------------------------------------------------------------------|
G|--------------------------------------------------------------------------------|
D|-1---------------------------7--6--4--1----------1---1--7--6--4--1-------1---1--|
A|-1---------------------------7--6--4--1----------1---1--7--6--4--1-------1---1--|
D|-1---------------------------7--6--4--1----------1---1--7--6--4--1-------1---1--|

Gtr1
e|-------------------------------------------------------------------|
B|-------------------------------------------------------------------|
G|-------------------------------------------------------------------|
D|------------1---1----1----1----------------------------------------|
A|------------1---1----1----1----------------------------------------|
D|--7--6--4---1---1----1----1----------------------------------------|

Gtr2
e|-------------------------------------------------------------------|
B|-------------------------------------------------------------------|
G|-------------------------------------------------------------------|
D|------------1---1----1----1----------------------------------------|
A|------------1---1----1----1----------------------------------------|
D|------------1---1----1----1----------------------------------------|

e|-----------------------------------------------------------------------|
B|-----------------------------------------------------------------------|
G|------------------------------------------------------------6--6--7----|
D|--1--1--1--1--1--1---------7--7---6----1--1--1--1--1--1--1--x--x--x----|
A|--1--1--1--1--1--1---------7--7---6----1--1--1--1--1--1--1--4--4--5----|
D|--1--1--1--1--1--1---------7--7---6----1--1--1--1--1--1--1-------------|

  p.m------|        p.m------|
e|--------------------------------------------------------------------|
B|--------------------------------------------------------------------|
G|-----------6---6--------------6---7---------------------------------|
D|-----------6---6--------------6---7---------------------------------|
A|-----------4---4--------------4---5---------------------------------|
D|-1//////4---------1///////4-----------------------------------------|

Main Riff
Gtr1
e|--------------------------------------------------------------------|
B|--------------------------------------------------------------------|
G|--8--8--11-10--8---7--7-11-10--8--/---13-11-10-11--/-13-10-11-10----|
D|--X--X--X---X--X---X--X--X--X--X--/----X--X--X--X--/--X--X--X--X----|
A|--6--6--9---8--6---5--5--9--8--6--/---11--9--8--9--/-11--8--9--8----|
D|--------------------------------------------------------------------|

Gtr2
e|--------------------------------------------------------------------|
B|--------------------------------------------------------------------|
G|---8--8--8--8---3--3--3--3----------------6--6--6--6----------------|
D|---8--8--8--8---3--3--3--3---4--4--4--4---6--6--6--6----------------|
A|---6--6--6--6---1--1--1--1---4--4--4--4---4--4--4--4----------------|
D|-----------------------------4--4--4--4-----------------------------|


Gtr1
e|----------------------------------------------------------------------|
B|----------------------------------------------------------------------|
G|--8-/-----------------------------------------------------------------|
D|--X-/-----------------------------------------------------------------|
A|--6-/-----------------------------------------------------------------|
D|----------------------------------------------------------------------|

Gtr2
e|--------------------------------------------------------------------|
B|--------------------------------------------------------------------|
G|--------------------------------------------------------------------|
D|-1---1---1---1---1-1-1---2------------------------------------------|
A|-1---1---1---1---1-1-1---2------------------------------------------|
D|-1---1---1---1---1-1-1---2------------------------------------------|
Comments