Sum 41 - Mr Amsterdam Chords & Tabs

 

Mr Amsterdam Chords & Tabs

Sum 41 Chords & Tabs

Version: 2 Type: Bass Tab 0 ratings
1 star 2 stars 3 stars 4 stars 5 stars
comments

Mr Amsterdam Bass Tab

this my first tab
Mr.Amsterdam-Bass Tab


intro
Gb--------------------------------|--------------------------------------------|
Db--------------------------------|------------------5-4-----------------------|
Ab-----------------------2--------|------22222-----55----------22222-----------|
Eb-0---0-0-0-0---0-0-0-0---3-2-3-2|-00000-----33333------00000------33333-22232|

verse-nothing


chours


Gb---------------|---------------|----------------------------------------|
Db---54-4-4------|---54-4-4------|--------------------------55-5-54-4-454-|
Ab-77------3355--|-77------3355--|----------------------------------------|
Eb---------------|---------------|-000000000-0--000000000-0---------------|

Gb----------------------------------------|------------------------------|
Db--------------------------55-5-54-4-454-|---54-4-4---------54-4-4------|
Ab----------------------------------------|-77------3355---77------3355--|
Eb-000000000-0--000000000-0---------------|------------------------------|

Gb------------------------------|
Db------------------------------|
Ab-777777--33-55--777777--33-55-|
Eb------------------------------|


intro
Gb--------------------------------------------|
Db------------------5-4-----------------------|
Ab------22222-----55----------22222-----------|
Eb-00000-----33333------00000------33333-22232|


verse-nothing


Pre-chours

Gb----------------------------|
Db----------------------------|
Ab---7--5--3-------7--5--3----|
Eb-0--------3-2--0--------3-2-|


chours

[ Tab from: http://www.guitartabs.cc/tabs/s/sum_41/mr_amsterdam_btab_ver_2.html ]
Gb----------------------------------------|
Db--------------------------55-5-54-4-454-|
Ab----------------------------------------|
Eb-000000000-0--000000000-0---------------|

Gb----------------------------------------|------------------------------|
Db--------------------------55-5-54-4-454-|---54-4-4---------54-4-4------|
Ab----------------------------------------|-77------3355---77------3355--|
Eb-000000000-0--000000000-0---------------|------------------------------|

Gb------------------------------------------------------------|
Db------------------------------------------------------------|
Ab-777777--33-55--777777--33-55--777777--33-55--777777--33-55-|
Eb------------------------------------------------------------|


Interlude


Gb---------------------------------------|-------------------------------------------------------------------|
Db---------------------------------------|-------------------------------------------------------------------|
Ab---------------------------------------|-7-7-7-7-7-7-------7-7-7-7-7-7-5-5--7-7-7-7-7-7------------55----56|
Eb-0----6-5-3-0-00-6-5-3-0-00-----0-0-0-0|0-----------6-5-3-0----------------0-----------6-5-3-0-7777--7777--|

Gb----------------------------------------------------------------------|
Db----------------------------------------------------------------------|
Ab--7-7-7-7-7-7-------7-7-7-7-7-7-5-5--7-7-7-7-7-7------------55----56--|
Eb-0-----------6-5-3-0----------------0-----------6-5-3-0-7777--7777----|



Ending


Gb--------------------------------------------|------------|
Db------------------5-4-----------------------|------------|
Ab------22222-----55----------22222-----------|------------|
Eb-00000-----33333------00000------33333-22232|0-0-0-00001-|
Comments