Sum 41 - Motivation Chords & Tabs

 

Motivation Chords & Tabs

Sum 41 Chords & Tabs

Version: 8 Type: Tab 0 ratings
1 star 2 stars 3 stars 4 stars 5 stars
comments

Motivation Tab

   
Artist: Sum 41
Track: Motivation
Album:  All Killer No Filler
Tabbed By Mark Brown E-mail markusbrownus2@hotmail.com

Begining Riff
e---------------------------------------|
B---------------------------------------|
G---------------------------------------|
D--2-2---2-2---2-2---2-2-----2----------|
A--2-2---2-2---2-2---2-2-----2----------|
E--0-0---0-0---0-0---0-0-12\-0----------|

Intro
e---------------|-------------|
B---------------|-------------|
G---------------|-------------|
D--2-2--6-7-7-7-|-9-9-9-7-7---|
A--2-2--6-7-7-7-|-9-9-9-7-7---|
E--0-0--4-5-5-4-|-7-7-7-4-5---|

Verse 1
e----------------------------|--------------|
B----------------------------|--------------|
G----------------------------|--------------|
D-----2------6------7------9-|-7-9-11-13----|
A-2-2-2--6-6-6--7-7-7--9-9-9-|-7-9-11-13----|
E-0-0-0--4-4-4--5-5-5--7-7-7-|-5-7--9-11----|

Chorus
e---------------------------------------------------------------------|
B---------------------------------------------------------------------|
G-9-9-9-9-9-9-9-9-----------------9-9-9-9-9-9-9-9---------------------|
D-9-9-9-9-9-9-9-9-9-9-9-9-9-9-9-9-9-9-9-9-9-9-9-9-7-7-7-7-9-9-9-9-7~-9|
A-7-7-7-7-7-7-7-7-9-9-9-9-9-9-9-9-7-7-7-7-7-7-7-7-7-7-7-7-9-9-9-9-7~-9|
E-----------------7-7-7-7-7-7-7-7-----------------5-5-5-5-7-7-7-7-5~-7|


Main Riff
e---------------|-------------|
B---------------|-------------|
G---------------|-------------|
D--2-2--6-7-7-7-|-9-9-9-7-7---|
A--2-2--6-7-7-7-|-9-9-9-7-7---|
E--0-0--4-5-5-4-|-7-7-7-4-5---|

Verse 2
e----------------------------|--------------|
B----------------------------|--------------|
G----------------------------|--------------|
D-----2------6------7------9-|-7-9-11-13----|
A-2-2-2--6-6-6--7-7-7--9-9-9-|-7-9-11-13----|
E-0-0-0--4-4-4--5-5-5--7-7-7-|-5-7--9-11----|
[ Tab from: http://www.guitartabs.cc/tabs/s/sum_41/motivation_tab_ver_8.html ]
Chorus
e---------------------------------------------------------------------|
B---------------------------------------------------------------------|
G-9-9-9-9-9-9-9-9-----------------9-9-9-9-9-9-9-9---------------------|
D-9-9-9-9-9-9-9-9-9-9-9-9-9-9-9-9-9-9-9-9-9-9-9-9-7-7-7-7-9-9-9-9-7~-9|
A-7-7-7-7-7-7-7-7-9-9-9-9-9-9-9-9-7-7-7-7-7-7-7-7-7-7-7-7-9-9-9-9-7~-9|
E-----------------7-7-7-7-7-7-7-7-----------------5-5-5-5-7-7-7-7-5~-7|

Riff 2
e-------------------|-------------------|
B-------------------|-------------------|
G-------4-4-4--2----|-------------------|
D-2--4--4-4-4--2----|-4-4-4-4--8-8-8-8--|
A-2--4--2-2-2--0----|-4-4-4-4--8-8-8-8--|
E-0--2--------------|-2-2-2-2--6-6-6-6--|

Riff 3
e------------------------------------|
B------------------------------------|
G------------------------------------|
D-2-2--------------------7-x-x-9-----|
A-2-2--5--4--2--0--------7-x-x-9-----|
E-0-0--------------4--0--5-x-x-7-----|

Riff 4
e------------------------------------|
B------------------------------------|
G-6--4--------2--4-4-4-4-4-4-4-4-----|
D-6--4--2--2--2--4-4-4-4-4-4-4-4-----|
A-4--2--2--2--0--2-2-2-2-2-2-2-2-----|
E-------0--0-------------------------|

Riff 5
e---------------------|-------------------|
B---------------------|-------------------|
G------4-4-------2-2--|-------------------|
D-2-2--4-4--4-4--2-2--|--7-x-x-9----------|
A-2-2--2-2--4-4--0-0--|--7-x-x-9----------|
E-0-0-------2-2-------|--5-x-x-7----------|

e------------------------|
B------------------------|
G-4-4-4-4--6-6-6-6-------|
D-4-4-4-4--6-6-6-6-------|
A-2-2-2-2--4-4-4-4-------|
E------------------------|

Main Riff (outro)
e---------------|-------------|
B---------------|-------------|
G---------------|-------------|
D--2-2--6-7-7-7-|-9-9-9-7-7---|
A--2-2--6-7-7-7-|-9-9-9-7-7---|
E--0-0--4-5-5-4-|-7-7-7-4-5---|

End On
e--------|
B--------|
G--------|
D-2------|
A-2------|
E-0------|
Comments