Sum 41 - Motivation Chords & Tabs

 

Motivation Chords & Tabs

Sum 41 Chords & Tabs

Version: 3 Type: Tab 1 rating
1 star 2 stars 3 stars 4 stars 5 stars
comments

Motivation Tab

Sum 41 - Motivation
	
Any questions or comments e-mail me at spike1007@hotmail.com 


intro
A|--------------------------------|
B|--------------------------------|
G|--------------------------------|
D|--2-2----2-2----2-2----2-2---2--|
A|--2-2----2-2----2-2----2-2---2--|
E|––0-0----0-0----0-0----0-0---0--|

repeat twice
A|--------------------------------------------------------------|
B|--------------------------------------------------------------|
G|--------------------------------------------------------------|
D|-2-2-2-6-7--7-6-2-2-2-6-7--7-6-2-2-2-6-7--7-6-9-9-9-6-7-7-7-6-|
A|-2-2-2-6-7--7-6-2-2-2-6-7--7-6-2-2-2-6-7--7-6-9-9-9-6-7-7-7-6-|
E|–0-0-0-4-5--5-4-0-0-0-4-5--5-4-0-0-0-4-5--5-4-7-7-7-4-5-5-5-4-|

repeat 4 times
p.m.___    ___    ___    ___   
A|------------------------------|
B|------------------------------|
G|------------------------------|
D|--2-2-2--2-2-2--7-7-7--9-9-9--|
A|--2-2-2--2-2-2--7-7-7--9-9-9--|
E|––0-0-0--0-0-0--5-5-5--7-7-7--|

played as short notes, have to listen to song to get rythim
A|-----------------------------------|
B|-----------------------------------|
G|-9-9-9-9-9-9-9-9-------------------|
D|-9-9-9-9-9-9-9-9--9-9-9-9-9-9-9-9--|
A|–7-7-7-7-7-7-7-7--9-9-9-9-9-9-9-9--|
E|------------------7-7-7-7-7-7-7-7--|

continued
A|----------------------------------------------------|
B|----------------------------------------------------|
G|-9-9-9-9-9-9-9-9------------------------------------|
D|-9-9-9-9-9-9-9-9--7-7-7-7-9-9-9-9--7------99999999--|
A|–7-7-7-7-7-7-7-7--7-7-7-7-9-9-9-9--7------99999999--|
E|------------------5-5-5-5-7-7-7-7--5------77777777--|


repeat twice
A|--------------------------------------------------------------|
B|--------------------------------------------------------------|
G|--------------------------------------------------------------|
D|-2-2-2-6-7--7-6-2-2-2-6-7--7-6-2-2-2-6-7--7-6-9-9-9-6-7-7-7-6-|
A|-2-2-2-6-7--7-6-2-2-2-6-7--7-6-2-2-2-6-7--7-6-9-9-9-6-7-7-7-6-|
E|–0-0-0-4-5--5-4-0-0-0-4-5--5-4-0-0-0-4-5--5-4-7-7-7-4-5-5-5-4-|

repeat 4 times
p.m.___    ___    ___    ___   
A|------------------------------|
B|------------------------------|
G|------------------------------|
D|--2-2-2--2-2-2--7-7-7--9-9-9--|
A|--2-2-2--2-2-2--7-7-7--9-9-9--|
E|––0-0-0--0-0-0--5-5-5--7-7-7--|
[ Tab from: http://www.guitartabs.cc/tabs/s/sum_41/motivation_tab_ver_3.html ]
played as short notes, have to listen to song to get rythim
A|-----------------------------------|
B|-----------------------------------|
G|-9-9-9-9-9-9-9-9-------------------|
D|-9-9-9-9-9-9-9-9--9-9-9-9-9-9-9-9--|
A|–7-7-7-7-7-7-7-7--9-9-9-9-9-9-9-9--|
E|------------------7-7-7-7-7-7-7-7--|

continued
A|----------------------------------------------------|
B|----------------------------------------------------|
G|-9-9-9-9-9-9-9-9------------------------------------|
D|-9-9-9-9-9-9-9-9--7-7-7-7-9-9-9-9--7------99999999--|
A|–7-7-7-7-7-7-7-7--7-7-7-7-9-9-9-9--7------99999999--|
E|------------------5-5-5-5-7-7-7-7--5------77777777--|

A|-----------------------------------------------------|
B|-----------------------------------------------------|
G|------------------------------------------22222222---|
D|–-2--9--7-----2--9--7-----2--9--7----4----22222222---|
A|–-2--9--7-----2--9--7-----2--9--7----4----00000000---|
E|–-0--7--5-----0--7--5-----0--7--5----2---------------|

repeat 4x
A|--------------------------|
B|--------------------------|
G|-------------------2-4-4--|
D|––2-2--------------2-4-4--|
A|–-2-2--5-4-2-0-----0-2-2--|
E|––0-0----------4-0--------|

A|------------------------------------------------------|
B|------------------------------------------------------|
G|—–9----9----9-----9-----------------------------------|
D|—–9----9----9-----9-9----7----9---9---9-9—9-9---------|
A|—–7----7----7-----7-9----7----9---9---9-9-9-9---------|
E|––------------------7----5----7---7---7-7-7-7---------|
repeat 8x
A|-------------------------|
B|-------------------------|
G|--------4-4---------2-2--|
D|--2-2---4-4---4-4---2-2--|
A|--2-2---2-2---4-4---0-0--|
E|––0-0---------2-2--------|

repeat 2x
A|--------------------------|
B|--------------------------|
G|-----4-----2--------2--4--|
D|--2--4--4--2--2--4--2--4--|
A|--2--2--4--0--2--4--0--2--|
E|–-0-----2-----0--2--------|

repeat twice
A|--------------------------------------------------------------|
B|--------------------------------------------------------------|
G|--------------------------------------------------------------|
D|-2-2-2-6-7--7-6-2-2-2-6-7--7-6-2-2-2-6-7--7-6-9-9-9-6-7-7-7-6-|
A|-2-2-2-6-7--7-6-2-2-2-6-7--7-6-2-2-2-6-7--7-6-9-9-9-6-7-7-7-6-|
E|–0-0-0-4-5--5-4-0-0-0-4-5--5-4-0-0-0-4-5--5-4-7-7-7-4-5-5-5-4-|

Spike ;)
Comments