Sum 41 - Motivation Chords & Tabs

 

Motivation Chords & Tabs

Sum 41 Chords & Tabs

Version: 2 Type: Tab 0 ratings
1 star 2 stars 3 stars 4 stars 5 stars
comments

Motivation Tab

                            MOVTIVATION
 ---------------------------------------------------------------------------
          
This song is wicked and asy to play 


[ Tab from: http://www.guitartabs.cc/tabs/s/sum_41/motivation_tab_ver_2.html ]
          Riff 1: Play 5x 
          -|---------------------------------------------------------------------------- 
          -|---------------------------------------------------------------------------- 
          -|---------------------------------------------------------------------------- 
          -|--2--2---------------------------------------------------------------------- 
          -|--2--2---------------------------------------------------------------------- 
          -|--0--0---------------------------------------------------------------------- 
            
          Riff 2: Play 2x then 2nd half once                                           
          -|---------------|------------------------------------------------------------ 
          -|---------------|------------------------------------------------------------ 
          -|---------------|------------------------------------------------------------ 
          -|--2222--7--77--|--2222--7--77--99--7--77------------------------------------ 
          -|--2222--7--77--|--2222--7--77--99--7--77------------------------------------ 
          -|--0000--5--55--|--0000--5--55--77--5--55------------------------------------ 
            
          Riff 3: Play 4x                                                              
          -|---------------------------------------------------------------------------- 
          -|---------------------------------------------------------------------------- 
          -|---------------------------------------------------------------------------- 
          -|--x-x-2---x-x-6---x-x-7---x-x-9--------------------------------------------- 
          -|--x-x-2---x-x-6---x-x-7---x-x-9--------------------------------------------- 
          -|--x-x-0---x-x-4---x-x-5---x-x-7--------------------------------------------- 
            
          Riff 4:                                                                      
          -|---------------------------------------------------------------------------- 
          -|---------------------------------------------------------------------------- 
          -|---------------------------------------------------------------------------- 
          -|--9--9--9--999--9--9--9----4--4--4--444--4--4--4----9--9--9--999--9--9--9--- 
          -|--9--9--9--999--9--9--9----4--4--4--444--4--4--4----9--9--9--999--9--9--9--- 
          -|--7--7--7--777--7--7--7----2--2--2--222--2--2--2----7--7--7--777--9--7--7--- 
          
          -|---------------------------------------------------------------------------- 
          -|---------------------------------------------------------------------------- 
          -|---------------------------------------------------------------------------- 
          -|--7--7--7--777--7--7--7----7------------777777------------------------------ 
          -|--7--7--7--777--7--7--7----7------------777777------------------------------ 
          -|--5--5--5--555--5--5--5----5------------555555------------------------------ 
            
          Riff 5: Play 3x then 2nd part once                                           
          -|-----------------------|---------------------------------------------------- 
          -|-----------------------|---------------------------------------------------- 
          -|-----------------------|---------------------------------------------------- 
          -|--2----9-9-9--7--------|--4444444--7777777---------------------------------- 
          -|--2----9-9-9--7--------|--4444444--7777777---------------------------------- 
          -|--0----7-7-7--5--------|--2222222--5555555---------------------------------- 
          
          Riff 6 play 4x then 2nd part once
          -|---------------------------|------------------------------------------------
          -|---------------------------|------------------------------------------------
          -|---------------------------|-----------------44444444--222222---------------
          -|-2-2-----------------------|-9----2--9--2----44444444--222222--444444444444-
          -|-2-2--5-4-2----------2-2---|-9----2--9--2----22222222--000000--444444444444-
          -|-0-0--------5-4-0-5--------|-7----0--7--0----------------------222222222222-
          
          Riff 7: Play a lot listen to
          song                                                             
          -|---------------------------------------------------------------------------- 
          -|---------------------------------------------------------------------------- 
          -|--------4-4----------------------------------------------------------------- 
          -|--2-2---4-4---4-4---7-7----------------------------------------------------- 
          -|--2-2---2-2---4-4---7-7----------------------------------------------------- 
          -|--0-0---------2-2---5-5----------------------------------------------------- 
            
          End Chord                                                                    
          -|-----|---------------------------------------------------------------------- 
          -|-----|---------------------------------------------------------------------- 
          -|-----|---------------------------------------------------------------------- 
          -|--2--|---------------------------------------------------------------------- 
          -|--2--|---------------------------------------------------------------------- 
          -|--0--|---------------------------------------------------------------------- 
          
-------------------------------------------------------------------------------
  
Comments