Sum 41 - Motivation Chords & Tabs

 

Motivation Chords & Tabs

Sum 41 Chords & Tabs

Version: 12 Type: Tab 0 ratings
1 star 2 stars 3 stars 4 stars 5 stars
comments

Motivation Tab

   
Artist: Sum 41
Album:  All Killer No Filler
Song: Motivation

Best played loud and with aggression, enough said!

x - palm muted
* - let ring
/ - slide up neck
\ - slide down neck
h - hammer on

intro (guitar1)
e-------------------------
b-------------------------
g-------------------------
D-22---22---22---22-22----
A-22---22---22---22-22-8\\
E-00---00---00---00-00-8\\

Riff1(guitar1+2)
e------------------------------------------
b------------------------------------------
g------------------------------------------ X2
D--22--------22--------22------------------
A--22-66-76--22-66-66--22-66-76--9996-7776-
E--00-44-54--00-44-44--00-44-54--7774-5554-

verse(guitar2)
e-------------------------
b-------------------------
g------------------------- X4
D-------------------------
A-----2-----6-----7-----9-
E-0-0-0-4-4-4-5-5-5-7-7-7-
  x x   x x   x x   x x 

ON 4th, guitar1 PLAYS
e-----------------------------
b-----------------------------
g-----------------------------
D-----------------------------
A-------------4-4-6-6-7-7-9-9-
E-----------------------------

Chorus(guitar1+2)
e--------------------------------------------------------------------------
b--------------------------------------------------------------------------
g-9-9-9-9-9-9-9-9-----------------9-9-9-9-9-9-9-9--------------------------
D-9-9-9-9-9-9-9-9-9-9-9-9-9-9-9-9-9-9-9-9-9-9-9-9--------------------------
A-7-7-7-7-7-7-7-7-9-9-9-9-9-9-9-9-7-7-7-7-7-7-7-7-9-9-9-9-9-9-9-9--6*---7*-
E-----------------7-7-7-7-7-7-7-7-----------------7-7-7-7-7-7-7-7--4*---5*-

Riff1(guitar1+2)
e------------------------------------------
b------------------------------------------
g------------------------------------------ X2
D--22--------22--------22------------------
A--22-66-76--22-66-66--22-66-76--9996-7776-
E--00-44-54--00-44-44--00-44-54--7774-5554-

verse(guitar2)
e-------------------------
b-------------------------
g------------------------- X4
D-------------------------
A-----2-----6-----7-----9-
E-0-0-0-4-4-4-5-5-5-7-7-7-
  x x   x x   x x   x x 

ON 4th, guitar1 PLAYS
e-----------------------------
b-----------------------------
g-----------------------------
D-----------------------------
A-------------4-4-6-6-7-7-9-9-
E-----------------------------

Chorus(guitar1+2)
e--------------------------------------------------------------------------
b--------------------------------------------------------------------------
g-9-9-9-9-9-9-9-9-----------------9-9-9-9-9-9-9-9--------------------------
D-9-9-9-9-9-9-9-9-9-9-9-9-9-9-9-9-9-9-9-9-9-9-9-9--------------------------
A-7-7-7-7-7-7-7-7-9-9-9-9-9-9-9-9-7-7-7-7-7-7-7-7-9-9-9-9-9-9-9-9--6*---7*-
E-----------------7-7-7-7-7-7-7-7-----------------7-7-7-7-7-7-7-7--4*---5*-

Post-Chorus(guitar1+2)
e-----------------------------------------------------
b-----------------------------------------------------
g-----------------------------------------------------
D-22-99-7-7777777---22-99-7-7777777---22-99-7-7777777-
A-22-99-7-7777777---22-99-7-7777777---22-99-7-7777777-
E-00-77-5-5555555---00-77-5-5555555---00-77-5-5555555-
[ Tab from: http://www.guitartabs.cc/tabs/s/sum_41/motivation_tab_ver_12.html ]
e---------------------
b---------------------
g---------------------
D-44444444/-77777777--
A-44444444/-77777777--
E-22222222/-55555555--

Solo(guitar1)
e---------------------------
b---------------------------
g--------------------------- X4
D-2-2-----------------------
A-2-2-5-h4-h2-0-------------
E-0-0-----------4-0-5/--7-7-

(guitar1)
e-------------------------------------
b-------------------------------------
g-6*--------9--9-9--9/6---------------
D-6*---9*---9--9-9--9/6---7-9-9999-22-
A-4*---9*---7--7-7--7/4---7-9-9999-22-
E------7*-----------------5-7-7777-00-

(guitar1)
e-------------
b-------------
g-44---------- X8
D-44-44-77-22-
A-22-44-77-22-
E----22-55-00-

ON 2nd, guitar2 PLAYS
e-0-0-0-0-0-0-0-0--
b--------4-----4-4-
g------------------ X6
D------------------
A------------------
E------------------
  x x x xxx x xxxx 

Outro(guitar1+2)
e---------------------    -------------------
b---------------------    -------------------
g------4444----------- X3 -------------------
D-2222-4444-4444-7777-    -77777777-99999999-
A-2222-2222-4444-7777-    -77777777-99999999-
E-0000------2222-5555-    -55555555-77777777-

Riff1(guitar1+2)
e------------------------------------------
b------------------------------------------
g------------------------------------------ X2
D--22--------22--------22------------------
A--22-66-76--22-66-66--22-66-76--9996-7776-
E--00-44-54--00-44-44--00-44-54--7774-5554-

End On
e---
b---
g---
D-2-
A-2-
E-0-

Lyrics

What's the difference of never knowing at all?
When every step I take is always too small.
Maybe it's just something I can't admit but lately,
I feel like I don't give a shit. 

Motivation such an aggravation,
Accusations don't know how to take them.
Inspiration's getting hard to fake it.
Concentration never hard to break it.
Situation never what you want it to be.

What's the point of never making mistakes?
Self-indulgence is such a hard habit to break.
It's all just a waste of time in the end.
I don't care so why should I even pretend.

Motivation such an aggravation,
Accusations don't know how to take them.
Inspiration's getting hard to fake it.
Concentration never hard to break it.
Situation never what you wanted.

Nothing's new, everything's the same.
It keeps on dragging me down, it's getting kind of lame.
I'm falling further behind, there's nothing to explain.
No matter what you say nothing's gonna change my mind.

Can't depend on doubt until the end.
It seems like leaving friends has become this years trend 
and though I can't pretend, afraid to be this way
It's not the same but who's to blame,
For all those stupid things I never said. 

Motivation such an aggravation,
Accusations don't know how to take them.
Inspiration's getting hard to fake it.
Concentration never hard to break it.

Motivation such an aggravation,
Accusations don't know how to take them.
Inspiration's getting hard to fake it.
Concentration... 
Situation never what you want it to be.

Never what you want it to be.
Never what you want it to be.
Comments