Sum 41 - Motivation Chords & Tabs

 

Motivation Chords & Tabs

Sum 41 Chords & Tabs

Version: 10 Type: Tab 0 ratings
1 star 2 stars 3 stars 4 stars 5 stars
comments

Motivation Tab

--------------------------------------------------------
                   Sum 41: Motivation
--------------------------------------------------------


(Drum bit: snare + hi-hat start song)

This is VERY RIGHT!!!!
If you think its crap (which i know you wont cus its flawless) Then E-mail me: 
(Spinesofdogs@yahoo.co.uk) Good song, dont ruin it with bad comments plz...
Oh and sorry for the lyrics, i couldnt hear what he was singing some of the time.
but anyway!!! This is the WHOLE SONG, starting with the strums at the start.


E-------------------------------------------------------
B-------------------------------------------------------
G-------------------------------------------------------
D---2--2--------2--2---------2--2----------2--2---2--2--
A---2--2--------2--2---------2--2----------2--2---2--2--
E---0--0--------0--0---------0--0----------0--0---0--0--

(During drum solo, above)
======================================================== 
E-------------------------------------------------------
B-------------------------------------------------------
G-------------------------------------------------------
D-2---2-6--7---7-6--2----2-6--7---7-6--2---2-6-7---7-6--
A-2---2-6--7---7-6--2----2-6--7---7-6--2---2-6-7---7-6-- 
E-0---0-4--5---5-4--0----0-4--5---5-4--0---0-4-5---5-4-

Starting riff....need to be quite quick getting to the A
E-------------------------------------------------------
b-------------------------------------------------------
g-------------------------------------------------------
d--7---7---6--7---7----6--------------------------------
a--7---7---6--7---7----6------x2------------------------
E--9---9---4--4---4----4--------------------------------

========================================================

E-------------------------------------------------------
B-------------------------------------------------------
G--------3-----------5-----------6-----------8----------
D--------2-----------6-----------7-----------9--9-------
A--2--2--2--2--6--6--6--6--7--7--7--7--9--9--9--9-------
E--0--0--0--0--4--4--4--4--5--5--5--5--7--7--7--7-------
__________________________pm____________________________


(palm muted) 'Whats the difference, of never knowing at all'


E-------------------------------------------------------
B-------------------------------------------------------
G--------3-----------5-----------6-----------8----------
D--------2-----------6-----------7-----------9--9-------
A--2--2--2--2--6--6--6--6--7--7--7--7--9--9--9--9-------
E--0--0--0--0--4--4--4--4--5--5--5--5--7--7--7--7-------
__________________________pm____________________________


'Or never step by, taking's allways too small'


E-------------------------------------------------------
B-------------------------------------------------------
G--------3-----------5-----------6-----------8----------
D--------2-----------6-----------7-----------9--9-------
A--2--2--2--2--6--6--6--6--7--7--7--7--9--9--9--9-------
E--0--0--0--0--4--4--4--4--5--5--5--5--7--7--7--7-------
__________________________pm____________________________

'Maybe its just something that i cant get'


E-------------------------------------------------------
B-------------------------------------------------------
G--------3-----------5-----------6-----------8----------
D--------2-----------6-----------7-----------9--9-------
A--2--2--2--2--6--6--6--6--7--7--7--7--9--9--9--9-------
E--0--0--0--0--4--4--4--4--5--5--5--5--7--7--7--7-------
__________________________pm____________________________


'Lately i feel like i dont give a shit
========================================================

E-------------------------------------------------------
B-------------------------------------------------------
G--9--9--9--9--9--9--9--9-------------------------------
D--9--9--9--9--9--9--9--9--9--9--9--9--9--9--9--9-------
A--7--7--7--7--7--7--7--7--9--9--9--9--9--9--9--9-------
E--------------------------7--7--7--7--7--7--7--7-------

For the chorus above, you need to play short strums.

'Motivation, súch an aggrivation'
'Accusations, dont know how to take them'

E-------------------------------------------------------
B-------------------------------------------------------
G--9--9--9--9--9--9--9--9-------------------------------
D--9--9--9--9--9--9--9--9--7--7--7--7--9--9--9--9-------
A--7--7--7--7--7--7--7--7--7--7--7--7--9--9--9--9-------
E--------------------------5--5--5--5--7--7--7--7-------

'Inspirations gettin on your ??? (couldnt hear wot you was sayin, deryk Whibley....)

'Concentration never wanna break it'

E-------------------------------------------------------
B-------------------------------------------------------
G-------------------------------------------------------
D-7----------------9------------------------------------
A-7----------------9------------------------------------
E-5----------------7------------------------------------
    (drone on...)


'Situation never what you want it to be'

========================================================
========================================================

E-------------------------------------------------------
B-------------------------------------------------------
G-------------------------------------------------------
D--2---2-6--7---7-6--2----2-6--7---7-6--2---2-6-7---7-6-
A--2---2-6--7---7-6--2----2-6--7---7-6--2---2-6-7---7-6- 
E--0---0-4--5---5-4--0----0-4--5---5-4--0---0-4-5---5-4-

[ Tab from: http://www.guitartabs.cc/tabs/s/sum_41/motivation_tab_ver_10.html ]
E-------------------------------------------------------
B-------------------------------------------------------
G-------------------------------------------------------
D--7---7---6--7---7----6--------------------------------
A--7---7---6--7---7----6------x2------------------------
E--9---9---4--4---4----4--------------------------------

(Wicked rocky bit!!! Have to be quick with the power chords)

========================================================

E-------------------------------------------------------
B-------------------------------------------------------
G--------3-----------5-----------6-----------8----------
D--------2-----------6-----------7-----------9--9-------
A--2--2--2--2--6--6--6--6--7--7--7--7--9--9--9--9-------
E--0--0--0--0--4--4--4--4--5--5--5--5--7--7--7--7-------
__________________________pm____________________________

'Whats the point of never making mistakes'

E-------------------------------------------------------
B-------------------------------------------------------
G--------3-----------5-----------6-----------8----------
D--------2-----------6-----------7-----------9--9-------
A--2--2--2--2--6--6--6--6--7--7--7--7--9--9--9--9-------
E--0--0--0--0--4--4--4--4--5--5--5--5--7--7--7--7-------
__________________________pm____________________________


'???????????? is such a hard habit to break'
E-------------------------------------------------------
B-------------------------------------------------------
G--------3-----------5-----------6-----------8----------
D--------2-----------6-----------7-----------9--9-------
A--2--2--2--2--6--6--6--6--7--7--7--7--9--9--9--9-------
E--0--0--0--0--4--4--4--4--5--5--5--5--7--7--7--7-------
__________________________pm____________________________


'??????? is just a waste of time in the end'
E-------------------------------------------------------
B-------------------------------------------------------
G--------3-----------5-----------6-----------8----------
D--------2-----------6-----------7-----------9--9-------
A--2--2--2--2--6--6--6--6--7--7--7--7--9--9--9--9-------
E--0--0--0--0--4--4--4--4--5--5--5--5--7--7--7--7-------
__________________________pm____________________________



'Dont care so why should i even pretent'


========================================================
========================================================

E-------------------------------------------------------
B-------------------------------------------------------
G--9--9--9--9--9--9--9--9-------------------------------
D--9--9--9--9--9--9--9--9--9--9--9--9--9--9--9--9-------
A--7--7--7--7--7--7--7--7--9--9--9--9--9--9--9--9-------
E--------------------------7--7--7--7--7--7--7--7-------

For the chorus above, you need to play short strums.

'Motivation, súch an aggrivation'
'Accusations, dont know how to take them'

E-------------------------------------------------------
B-------------------------------------------------------
G--9--9--9--9--9--9--9--9-------------------------------
D--9--9--9--9--9--9--9--9--7--7--7--7--9--9--9--9-------
A--7--7--7--7--7--7--7--7--7--7--7--7--9--9--9--9-------
E--------------------------5--5--5--5--7--7--7--7-------

'Inspirations gettin on your ??? (couldnt hear wot you was sayin, deryk Whibley....)

'Concentration never wanna break it'


E-------------------------------------------------------
B-------------------------------------------------------
G-------------------------------------------------------
D-7----------------9------------------------------------
A-7----------------9------------------------------------
E-5----------------7------------------------------------
    (drone on...)


'Situation never what you wanted'


E--0--0--7-7--5-----------------------------------------
B--0--0--7-7--5-----------------------------------------
G--3--3--8-8--6-----------------------------------------
D--2--2--9-9--7-----------------------------------------
A--2--2--9-9--7----x3-----------------------------------
E--0--0--7-7--5-----------------------------------------

'Nothings new/everythings the same'
'Keeps on dragging me down/its getting kind of new'
'Falling further behind/theres nothing to explain'


E--3--3--5--5-------------------------------------------
B--3--3--5--5-------------------------------------------
G--4--4--6--6-------------------------------------------
D--5--5--7--7-------------------------------------------
A--5--5--7--7-------------------------------------------
E--3--3--5--5-------------------------------------------

'No matter what you say nothings gonna change my mind'



    SOLO!!!!!!! Easy to play when you do it right!!
E-------------------------------------------------------
B-------------------------------------------------------
G-------------------------------------------------------
D-------0------------------2--2/4-4---------------------
A--2--2----4--2--0---------0--0/2-2----X4---------------
E--0--0-------------4--0--------------------------------


E-------------------------------------------------------
B-------------------------------------------------------
G----------------------9--------------------------------
D-11---------9---------9--X4----9-------7-------9-------
A-11----X8---9--X8-----7--------9--X4---7-X4----9-X8----
E--9---------7------------------7-------5-------7-------
This is the wierd bit after the solo. these chords drag on a bit, 
(however, near the end of the sequence, it speeds up a lil')


E-------------------------------------------------------
B-------------------------------------------------------
G--9--9----------11-11----------------------------------
D--9--9--11--11--11-11--9--9----------------------------
A--7--7--11--11---9--9--9--9----------------------------
E---------9---9---------7--7----------------------------

Motivation bit here is just guitar. It plays until the end!!!

Drums etc come in, but still same chords until finish!

By Daly!!
Comments