Sum 41 - Motivation Chords & Tabs

 

Motivation Chords & Tabs

Sum 41 Chords & Tabs

Version: 5 Type: Bass Tab 0 ratings
1 star 2 stars 3 stars 4 stars 5 stars
comments

Motivation Bass Tab

Hey, don't bite my head off if this is a little off. I don't think it is, sounds
great to me. And one more thing. If you're lookin for a bassist for something,
email me at pissedpixy@quackquack.com  thanks.

Intro:(Part 1)
G|------------------------------------------------
D|------------------------------------------------
A|-3----------------------------------------------
E|-----------------33-----33----33--55--33--------

Intro: (Part 2)
G|------------------------------------------------
D|------------------------------------------------
A|------------------------------------------------
E|-3333-55-3333-555-3333-555-777-555--------------

Verse:

G|------------------------
D|------------------------
A|------------------------
E|-333-555-777-555--------
[ Tab from: http://www.guitartabs.cc/tabs/s/sum_41/motivation_btab_ver_5.html ]
Chorus:
G|------------------------------------------------
D|------------------------------------------------
A|------------------------------------------------
E|-33-55-33-55-33-55-77-55-3----------5-----------

Then playthe second intro part then the verse and then the chorus. now you play.....

Bridge:
G|----------------------------------------------------------
D|----------------------------------------------------------
A|----------------------------------------------------------
E|[333--5--777777]-play that four times, then play [33-55-7]

G|----------------------------------------------------------------------
D|----------------------------------------------------------------------
A|----------------------------------------------------------------------
E|-55555555-77777777-55555555-77777777--555-777-555-777-555-777-55-77---

Intrelude/bass solo:
G|-----------------------9-9-11-11-11-------999-11-11-11-999--
D|-77-9--11-11-999-77-9----------------999--------------------
A|------------------------------------------------------------
E|------------------------------------------------------------
Comments