Sum 41 - Moron Chords & Tabs

 

Moron Chords & Tabs

Sum 41 Chords & Tabs

Version: 2 Type: Tab 0 ratings
1 star 2 stars 3 stars 4 stars 5 stars
comments

Moron Tab

Sum 41
Moron


^ = don't palm mute play the chord open

Let the last chord ring
E-------------------------------------------------------------------------------------|
B-------------------------------------------------------------------------------------|
G-------------------------------------------------------------------------------------|
D--222----222---222----2222~----------------------------------------------------------|
A--222----222---222----2222~-----Pick slide-------------------------------------------|
E--000----000---000----0000~----------------------------------------------------------|
     Pm................................^

Verse 1
E-------------------------------------------------------------------------------------|
B-------------------------------------------------------------------------------------|
G------------5-------------------5-------------------5-----------------5--7777--------|
D--22--55--5--444---22--55--5--444--22--55--5-444--22--55--5--7777--------------------|
A--22--55--3--444---22--55--3--444--22--55--3-444--22--55--3--5555--------------------|
E--00--33------222---00--33-----222--00--33-----222--00--33---------------------------|

Chorus
E-------------------------------------------------------------------------------------|
B-------------------------------------------------------------------------------------|
G--------------555555-----------------------------------555555--777777----------------|
D--2222222--555555--555555--555555--222222--555555--777777--777777--------------------|
A--2222222--333333--555555--555555--222222--333333--555555--777777--------------------|
E--0000000-------------333333--222222--000000------------------------555555-----------|

Chorus For lead
E-------------------------------------------------------------------------------------|
B-------------------------------------------------------------------------------------|
G--999999--17-17-17-17-17-17--12-12-12-12-12-12--11-11-11-11-11-11--------------------|
D--xxxxxx--xxxxxxxxxxxxxxx--xxxxxxxxxxxxxxx---xxxxxxxxxxxxxxx-------------------------|
A--777777--15-15-15-15-15-15--10-10-10-10-10-10----9--9---9--9--9--9------------------|
E-------------------------------------------------------------------------------------|
Continued
E-------------------------------------------------------------------------------------|
B-------------------------------------------------------------------------------------|
G--999999--17-17-17-17-17-17--19-19-19-19-19-19--14-14-14-14-14-14--------------------|
D--xxxxxx-- xxxxxxxxxxxxxxx -xxxxxxxxxxxxxxx-- xxxxxxxxxxxxxxx -----------------------|
A--777777--15-15-15-15-15-15--17-17-17-17-17-17--12-12-12-12-12-12--------------------|
E-------------------------------------------------------------------------------------|


Bridge
E-------------------------------------------------------------------------------------|
B-------------------------------------------------------------------------------------|
G-------------------------------------------------------------------------------------|
D--222--222--5-222--2020--2-----------------------------------------------------------|
A--222--222--5-222--2020--2--Let it ring----------------------------------------------|
E--000--000--3-000--0000--0-----------------------------------------------------------|
[ Tab from: http://www.guitartabs.cc/tabs/s/sum_41/moron_tab_ver_2.html ]
Play bass for the first part of verse 2
E----------------------------------------------------------------------------------------|
B----------------------------------------------------------------------------------------|
G----------------------------------------------------------------------------------------|
D----------------------------------------------------------------------------------------|
A-----------3---------------3---------------3---------------3--5555----Pick slide--------|
E--00--33----2--00--33-----2--00--33-----2--00--33---------------------------------------|
Verse 2 part 2
E-------------------------------------------------------------------------------------|
B-------------------------------------------------------------------------------------|
G------------5-------------------5-------------------5-----------------5--7777--------|
D--22--55--5--444---22--55--5--444--22--55--5-444--22--55--5--7777--------------------|
A--22--55--3--444---22--55--3--444--22--55--3-444--22--55--3--5555--------------------|
E--00--33------222---00--33-----222--00--33-----222--00--33---------------------------|

Chorus
E-------------------------------------------------------------------------------------|
B-------------------------------------------------------------------------------------|
G--------------555555-----------------------------------555555--777777----------------|
D--2222222--555555--555555--555555--222222--555555--777777--777777--------------------|
A--2222222--333333--555555--555555--222222--333333--555555--777777--------------------|
E--0000000-------------333333--222222--000000------------------------555555-----------|

Chorus For lead
E-------------------------------------------------------------------------------------|
B-------------------------------------------------------------------------------------|
G--999999--17-17-17-17-17-17--12-12-12-12-12-12--11-11-11-11-11-11--------------------|
D--xxxxxx--xxxxxxxxxxxxxxx--xxxxxxxxxxxxxxx---xxxxxxxxxxxxxxx-------------------------|
A--777777--15-15-15-15-15-15--10-10-10-10-10-10----9--9---9--9--9--9------------------|
E-------------------------------------------------------------------------------------|
Continued
E-------------------------------------------------------------------------------------|
B-------------------------------------------------------------------------------------|
G--999999--17-17-17-17-17-17--19-19-19-19-19-19--14-14-14-14-14-14--------------------|
D--xxxxxx-- xxxxxxxxxxxxxxx -xxxxxxxxxxxxxxx-- xxxxxxxxxxxxxxx -----------------------|
A--777777--15-15-15-15-15-15--17-17-17-17-17-17--12-12-12-12-12-12--------------------|
E-------------------------------------------------------------------------------------|
Oturo
E-------------------------------------------------------------------------------------|
B-------------------------------------------------------------------------------------|
G-------------------------------------------------------------------------------------|
D--99--12-12--14-14--13-13------------------------------------------------------------|
A--xx--xxxx---xxxx---xxxx-------------------------------------------------------------|
E--77--10-10--12-12--11-11------------------------------------------------------------|

E-------------------|
B-------------------|
G--------55---------|
D--22---55-55--55---|
A--22---33-55--55---|
E--00-------33--22--|

Let the last chord ring
E---------------------|
B---------------------|
G---------------------|
D--222--222-2-222--3--|
A--222--222-2-222--3--|
E--000--000-0-000--1--|
Comments