Sum 41 - Moron Chords & Tabs

 

Moron Chords & Tabs

Sum 41 Chords & Tabs

Version: 1 Type: Tab 0 ratings
1 star 2 stars 3 stars 4 stars 5 stars
comments

Moron Tab

   
-----------------------------------------------------------------------------
			     MORON - Sum 41
-----------------------------------------------------------------------------
Tabbed by:Tcurtis
Email:SuM41_RoX182@hotmail.com

Tuning:Db-Ab-Db-Gb-Bb-Eb

intro:
e|--------------------------------------------------------------------------|
B|--------------------------------------------------------------------------|
G|--------------------------------------------------------------------------|
D|--2222----2222----2222----2222~-------------------------------------------|
A|--2222----2222----2222----2222~-------------------------------------------|
E|--2222----2222----2222----2222~--pick slide-------------------------------|
pm: ....    ....    ....    ...

verse:
e|--------------------------------------------------------------------------|
B|--------------------------------------------------------------------------|
G|-----------5555-7777------------------------------------------------------|
D|-2222-5555-5555-7777------------------------------------------------------|
A|-2222-5555-3333-5555------------------------------------------------------|
E|-2222-5555----------------------------------------------------------------|
[ Tab from: http://www.guitartabs.cc/tabs/s/sum_41/moron_tab.html ]
chorus (rhythm):
e|--------------------------------------------------------------------------|
B|--------------------------------------------------------------------------|
G|------5555----------------------------------------------------------------|
D|-2222-5555-5555-5555------------------------------------------------------|
A|-2222-3333-5555-5555------------------------------------------------------|
E|-2222------5555-4444------------------------------------------------------|

chorus (lead):
e|--------------------------------------------------------------------------|
B|--------------------------------------------------------------------------|
G|-9999-5555-12121212-11111111----------------------------------------------|
D|-xxxx-xxxx-x-x-x-x--x-x-x-x-----------------------------------------------|
A|-7777-3333-10101010-9-9-9-9-----------------------------------------------|
E|--------------------------------------------------------------------------|

bridge:
e|--------------------------------------------------------------------------|
B|--------------------------------------------------------------------------|
G|--------------------------------------------------------------------------|
D|--202-2202-3-202 22023-2~-------------------------------------------------|
A|--202-2202-3-202-22023-2~-------------------------------------------------|
E|--202-2202-3-202 22023-2~-------------------------------------------------|

ending:
e|--------------------------------------------------------------------------|
B|--------------------------------------------------------------------------|
G|--------------------------------------------------------------------------|
D|-202-202------------------------------------------------------------------|
A|-202-202------------------------------------------------------------------|
E|-202-202------------------------------------------------------------------|


order:
intro x1
verse x4
chorus x4
bridge x1
verse x4
chorus x4
verse x4
ending x1


this song appears on the FAT WRECK CHORDS compilation ROCK AGAINST BUSH vol 1

GO BUY IT NOW!!!
Comments